  0
SECTION
  2
HEADER
  9
$ACADVER
  1
AC1009
  9
$DWGCODEPAGE
  3
ansi_1252
  9
$INSBASE
 10
0.0
 20
0.0
 30
0.0
  9
$EXTMIN
 10
0.0
 20
0.0
 30
0.0
  9
$EXTMAX
 10
210.0
 20
297.0
 30
0.0
  9
$LIMMIN
 10
0.0
 20
0.0
  9
$LIMMAX
 10
210.0
 20
297.0
  9
$ORTHOMODE
 70
     0
  9
$REGENMODE
 70
     1
  9
$FILLMODE
 70
     1
  9
$QTEXTMODE
 70
     0
  9
$MIRRTEXT
 70
     1
  9
$DRAGMODE
 70
     2
  9
$LTSCALE
 40
1.0
  9
$OSMODE
 70
    37
  9
$ATTMODE
 70
     1
  9
$TEXTSIZE
 40
2.5
  9
$TRACEWID
 40
1.0
  9
$TEXTSTYLE
  7
STANDARD
  9
$CLAYER
  8
0
  9
$CELTYPE
  6
BYLAYER
  9
$CECOLOR
 62
   256
  9
$DIMSCALE
 40
1.0
  9
$DIMASZ
 40
2.5
  9
$DIMEXO
 40
0.625
  9
$DIMDLI
 40
3.75
  9
$DIMRND
 40
0.0
  9
$DIMDLE
 40
0.0
  9
$DIMEXE
 40
1.25
  9
$DIMTP
 40
0.0
  9
$DIMTM
 40
0.0
  9
$DIMTXT
 40
2.5
  9
$DIMCEN
 40
2.5
  9
$DIMTSZ
 40
0.0
  9
$DIMTOL
 70
     0
  9
$DIMLIM
 70
     0
  9
$DIMTIH
 70
     0
  9
$DIMTOH
 70
     0
  9
$DIMSE1
 70
     0
  9
$DIMSE2
 70
     0
  9
$DIMTAD
 70
     1
  9
$DIMZIN
 70
     8
  9
$DIMBLK
  1

  9
$DIMASO
 70
     1
  9
$DIMSHO
 70
     1
  9
$DIMPOST
  1

  9
$DIMAPOST
  1

  9
$DIMALT
 70
     0
  9
$DIMALTD
 70
     3
  9
$DIMALTF
 40
0.0393700787
  9
$DIMLFAC
 40
1.0
  9
$DIMTOFL
 70
     1
  9
$DIMTVP
 40
0.0
  9
$DIMTIX
 70
     0
  9
$DIMSOXD
 70
     0
  9
$DIMSAH
 70
     0
  9
$DIMBLK1
  1

  9
$DIMBLK2
  1

  9
$DIMSTYLE
  2
ISO-25
  9
$DIMCLRD
 70
     0
  9
$DIMCLRE
 70
     0
  9
$DIMCLRT
 70
     0
  9
$DIMTFAC
 40
1.0
  9
$DIMGAP
 40
0.625
  9
$LUNITS
 70
     2
  9
$LUPREC
 70
     4
  9
$SKETCHINC
 40
1.0
  9
$FILLETRAD
 40
0.0
  9
$AUNITS
 70
     0
  9
$AUPREC
 70
     0
  9
$MENU
  1
.
  9
$ELEVATION
 40
0.0
  9
$PELEVATION
 40
0.0
  9
$THICKNESS
 40
0.0
  9
$LIMCHECK
 70
     0
  9
$CHAMFERA
 40
0.0
  9
$CHAMFERB
 40
0.0
  9
$SKPOLY
 70
     0
  9
$TDCREATE
 40
2460458.617973426
  9
$TDUPDATE
 40
2460458.617985058
  9
$TDINDWG
 40
0.0000000116
  9
$TDUSRTIMER
 40
0.0000000116
  9
$USRTIMER
 70
     1
  9
$ANGBASE
 50
0.0
  9
$ANGDIR
 70
     0
  9
$PDMODE
 70
     0
  9
$PDSIZE
 40
0.0
  9
$PLINEWID
 40
0.0
  9
$COORDS
 70
     1
  9
$SPLFRAME
 70
     0
  9
$SPLINETYPE
 70
     6
  9
$SPLINESEGS
 70
     8
  9
$ATTDIA
 70
     0
  9
$ATTREQ
 70
     1
  9
$HANDLING
 70
     1
  9
$HANDSEED
  5
227
  9
$SURFTAB1
 70
     6
  9
$SURFTAB2
 70
     6
  9
$SURFTYPE
 70
     6
  9
$SURFU
 70
     6
  9
$SURFV
 70
     6
  9
$UCSNAME
  2

  9
$UCSORG
 10
0.0
 20
0.0
 30
0.0
  9
$UCSXDIR
 10
1.0
 20
0.0
 30
0.0
  9
$UCSYDIR
 10
0.0
 20
1.0
 30
0.0
  9
$PUCSNAME
  2

  9
$PUCSORG
 10
0.0
 20
0.0
 30
0.0
  9
$PUCSXDIR
 10
1.0
 20
0.0
 30
0.0
  9
$PUCSYDIR
 10
0.0
 20
1.0
 30
0.0
  9
$USERI1
 70
     0
  9
$USERI2
 70
     0
  9
$USERI3
 70
     0
  9
$USERI4
 70
     0
  9
$USERI5
 70
     0
  9
$USERR1
 40
0.0
  9
$USERR2
 40
0.0
  9
$USERR3
 40
0.0
  9
$USERR4
 40
0.0
  9
$USERR5
 40
0.0
  9
$WORLDVIEW
 70
     1
  9
$SHADEDGE
 70
     3
  9
$SHADEDIF
 70
    70
  9
$TILEMODE
 70
     1
  9
$MAXACTVP
 70
    64
  9
$PLIMCHECK
 70
     0
  9
$PEXTMIN
 10
0.0
 20
0.0
 30
0.0
  9
$PEXTMAX
 10
210.0
 20
297.0
 30
0.0
  9
$PLIMMIN
 10
0.0
 20
0.0
  9
$PLIMMAX
 10
210.0
 20
297.0
  9
$UNITMODE
 70
     0
  9
$VISRETAIN
 70
     1
  9
$PLINEGEN
 70
     0
  9
$PSLTSCALE
 70
     1
  0
ENDSEC
  0
SECTION
  2
TABLES
  0
TABLE
  2
VPORT
 70
     1
  0
VPORT
  2
*ACTIVE
 70
     0
 10
0.0
 20
0.0
 11
1.0
 21
1.0
 12
344.1869158879
 22
148.5
 13
0.0
 23
0.0
 14
10.0
 24
10.0
 15
10.0
 25
10.0
 16
0.0
 26
0.0
 36
1.0
 17
0.0
 27
0.0
 37
0.0
 40
297.0
 41
1.9729729729
 42
50.0
 43
0.0
 44
0.0
 50
0.0
 51
0.0
 71
     0
 72
   100
 73
     1
 74
     3
 75
     0
 76
     0
 77
     0
 78
     0
  0
ENDTAB
  0
TABLE
  2
LTYPE
 70
     2
  0
LTYPE
  2
CONTINUOUS
 70
     0
  3
Solid line
 72
    65
 73
     0
 40
0.0
  0
LTYPE
  2
CENTER2
 70
     0
  3
Center (.5x) ___ _ ___ _ ___ _ ___ _ ___ _ ___
 72
    65
 73
     4
 40
28.575
 49
19.05
 49
-3.175
 49
3.175
 49
-3.175
  0
ENDTAB
  0
TABLE
  2
LAYER
 70
     8
  0
LAYER
  2
0
 70
     0
 62
     7
  6
CONTINUOUS
  0
LAYER
  2
DEFAULT
 70
     0
 62
     7
  6
CONTINUOUS
  0
LAYER
  2
CORPO_ATOM
 70
     0
 62
     7
  6
CONTINUOUS
  0
LAYER
  2
SCHERMO_FRONTALE
 70
     0
 62
     7
  6
CONTINUOUS
  0
LAYER
  2
COPERTURA_ATOM
 70
     0
 62
     7
  6
CONTINUOUS
  0
LAYER
  2
VITE_ATOM
 70
     0
 62
     7
  6
CONTINUOUS
  0
LAYER
  2
3175116B
 70
     0
 62
     7
  6
CONTINUOUS
  0
LAYER
  2
DV2_DEFAULT
 70
     0
 62
     7
  6
CONTINUOUS
  0
ENDTAB
  0
TABLE
  2
STYLE
 70
     3
  0
STYLE
  2
STANDARD
 70
     0
 40
0.0
 41
1.0
 50
0.0
 71
     0
 42
2.5
  3
txt
  4

  0
STYLE
  2
SEACAD_ARIAL
 70
     0
 40
0.0
 41
1.0
 50
0.0
 71
     0
 42
2.5
  3
arial.ttf
  4

  0
STYLE
  2
SEACAD_SOLID_EDGE_ANSI1_SY
 70
     0
 40
0.0
 41
1.0
 50
0.0
 71
     0
 42
2.5
  3
semeca1.ttf
  4

  0
ENDTAB
  0
TABLE
  2
VIEW
 70
     0
  0
ENDTAB
  0
TABLE
  2
UCS
 70
     0
  0
ENDTAB
  0
TABLE
  2
APPID
 70
     1
  0
APPID
  2
ACAD
 70
     0
  0
ENDTAB
  0
TABLE
  2
DIMSTYLE
 70
     1
  0
DIMSTYLE
  2
ISO-25
 70
     0
  3

  4

  5

  6

  7

 40
1.0
 41
2.5
 42
0.625
 43
3.75
 44
1.25
 45
0.0
 46
0.0
 47
0.0
 48
0.0
140
2.5
141
2.5
142
0.0
143
0.0393700787
144
1.0
145
0.0
146
1.0
147
0.625
 71
     0
 72
     0
 73
     0
 74
     0
 75
     0
 76
     0
 77
     1
 78
     8
170
     0
171
     3
172
     1
173
     0
174
     0
175
     0
176
     0
177
     0
178
     0
  0
ENDTAB
  0
ENDSEC
  0
SECTION
  2
BLOCKS
  0
BLOCK
  8
0
  2
$MODEL_SPACE
 70
     0
 10
0.0
 20
0.0
 30
0.0
  3
$MODEL_SPACE
  1

  0
ENDBLK
  5
21
  8
0
  0
BLOCK
 67
     1
  8
0
  2
$PAPER_SPACE
 70
     0
 10
0.0
 20
0.0
 30
0.0
  3
$PAPER_SPACE
  1

  0
ENDBLK
  5
1D
 67
     1
  8
0
  0
BLOCK
  8
0
  2
SE
 70
     0
 10
0.0
 20
0.0
 30
0.0
  3
SE
  1

  0
CIRCLE
  5
62
  8
CORPO_ATOM
  6
CONTINUOUS
 62
     7
 10
130.990414205
 20
179.7531564851
 30
0.0
 40
34.0
  0
CIRCLE
  5
63
  8
CORPO_ATOM
  6
CONTINUOUS
 62
     7
 10
130.990414205
 20
179.7531564851
 30
0.0
 40
33.49999698393
  0
CIRCLE
  5
64
  8
CORPO_ATOM
  6
CONTINUOUS
 62
     7
 10
130.990414205
 20
179.7531564851
 30
0.0
 40
22.3
  0
CIRCLE
  5
66
  8
SCHERMO_FRONTALE
  6
CONTINUOUS
 62
     7
 10
130.990414205
 20
179.7531564851
 30
0.0
 40
22.2
  0
ENDBLK
  5
68
  8
0
  0
BLOCK
  8
0
  2
SE1
 70
     0
 10
0.0
 20
0.0
 30
0.0
  3
SE1
  1

  0
LINE
  5
6B
  8
CORPO_ATOM
  6
CONTINUOUS
 62
     7
 10
96.990414205
 20
101.3985177806
 30
0.0
 11
164.990414205
 21
101.3985177806
 31
0.0
  0
LINE
  5
6C
  8
CORPO_ATOM
  6
CONTINUOUS
 62
     7
 10
96.990414205
 20
100.6985201816
 30
0.0
 11
164.990414205
 21
100.6985201816
 31
0.0
  0
LINE
  5
6D
  8
CORPO_ATOM
  6
CONTINUOUS
 62
     7
 10
97.4904172211
 20
100.1985184525
 30
0.0
 11
164.490411189
 21
100.1985184525
 31
0.0
  0
LINE
  5
6E
  8
CORPO_ATOM
  6
CONTINUOUS
 62
     7
 10
155.990414205
 20
101.3985177806
 30
0.0
 11
155.990414205
 21
103.3985177806
 31
0.0
  0
LINE
  5
6F
  8
CORPO_ATOM
  6
CONTINUOUS
 62
     7
 10
156.990414205
 20
107.8416531088
 30
0.0
 11
155.9335495332
 21
108.8985177806
 31
0.0
  0
LINE
  5
70
  8
CORPO_ATOM
  6
CONTINUOUS
 62
     7
 10
156.990414205
 20
107.8416531088
 30
0.0
 11
158.490414205
 21
106.3416531088
 31
0.0
  0
LINE
  5
71
  8
CORPO_ATOM
  6
CONTINUOUS
 62
     7
 10
158.490414205
 20
103.3985177806
 30
0.0
 11
156.990414205
 21
103.3985177806
 31
0.0
  0
LINE
  5
72
  8
CORPO_ATOM
  6
CONTINUOUS
 62
     7
 10
155.9335495332
 20
103.3985177806
 30
0.0
 11
156.990414205
 21
103.3985177806
 31
0.0
  0
LINE
  5
73
  8
CORPO_ATOM
  6
CONTINUOUS
 62
     7
 10
106.0472788769
 20
103.3985177806
 30
0.0
 11
104.990414205
 21
103.3985177806
 31
0.0
  0
LINE
  5
74
  8
CORPO_ATOM
  6
CONTINUOUS
 62
     7
 10
104.990414205
 20
103.3985177806
 30
0.0
 11
103.490414205
 21
103.3985177806
 31
0.0
  0
LINE
  5
75
  8
CORPO_ATOM
  6
CONTINUOUS
 62
     7
 10
158.490414205
 20
106.3416531088
 30
0.0
 11
158.490414205
 21
103.3985177806
 31
0.0
  0
LINE
  5
76
  8
CORPO_ATOM
  6
CONTINUOUS
 62
     7
 10
155.9335495332
 20
103.3985177806
 30
0.0
 11
155.9335495332
 21
108.8985177806
 31
0.0
  0
LINE
  5
77
  8
CORPO_ATOM
  6
CONTINUOUS
 62
     7
 10
105.5100319424
 20
102.3985154296
 30
0.0
 11
105.5100295926
 21
101.3985177806
 31
0.0
  0
LINE
  5
78
  8
CORPO_ATOM
  6
CONTINUOUS
 62
     7
 10
105.490414205
 20
102.3985036724
 30
0.0
 11
105.5100295926
 21
102.3985036724
 31
0.0
  0
LINE
  5
79
  8
CORPO_ATOM
  6
CONTINUOUS
 62
     7
 10
156.4707988175
 20
102.3987140067
 30
0.0
 11
156.4707988175
 21
101.3985177806
 31
0.0
  0
LINE
  5
7A
  8
CORPO_ATOM
  6
CONTINUOUS
 62
     7
 10
156.490414205
 20
102.3987140067
 30
0.0
 11
156.4707988175
 21
102.3987140067
 31
0.0
  0
LINE
  5
7B
  8
CORPO_ATOM
  6
CONTINUOUS
 62
     7
 10
134.740414205
 20
108.8985177806
 30
0.0
 11
155.9335495332
 21
108.8985177806
 31
0.0
  0
LINE
  5
7C
  8
CORPO_ATOM
  6
CONTINUOUS
 62
     7
 10
134.740414205
 20
106.8985177806
 30
0.0
 11
134.740414205
 21
108.8985177806
 31
0.0
  0
LINE
  5
7D
  8
CORPO_ATOM
  6
CONTINUOUS
 62
     7
 10
134.3892563997
 20
106.8985177806
 30
0.0
 11
134.740414205
 21
106.8985177806
 31
0.0
  0
LINE
  5
7E
  8
CORPO_ATOM
  6
CONTINUOUS
 62
     7
 10
131.7903157753
 20
101.3985177806
 30
0.0
 11
131.7903157753
 21
102.3985177806
 31
0.0
  0
LINE
  5
7F
  8
CORPO_ATOM
  6
CONTINUOUS
 62
     7
 10
130.1905126348
 20
101.3985177806
 30
0.0
 11
130.1905126348
 21
102.3985177806
 31
0.0
  0
LINE
  5
80
  8
CORPO_ATOM
  6
CONTINUOUS
 62
     7
 10
127.240414205
 20
106.8985177806
 30
0.0
 11
127.3840562755
 21
106.8985177806
 31
0.0
  0
LINE
  5
81
  8
CORPO_ATOM
  6
CONTINUOUS
 62
     7
 10
127.240414205
 20
106.8985177806
 30
0.0
 11
127.240414205
 21
108.8985177806
 31
0.0
  0
LINE
  5
82
  8
CORPO_ATOM
  6
CONTINUOUS
 62
     7
 10
106.0472788769
 20
108.8985177806
 30
0.0
 11
127.240414205
 21
108.8985177806
 31
0.0
  0
LINE
  5
83
  8
CORPO_ATOM
  6
CONTINUOUS
 62
     7
 10
106.0472788769
 20
103.3985177806
 30
0.0
 11
106.0472788769
 21
108.8985177806
 31
0.0
  0
LINE
  5
84
  8
CORPO_ATOM
  6
CONTINUOUS
 62
     7
 10
105.990414205
 20
101.3985177806
 30
0.0
 11
105.990414205
 21
103.3985177806
 31
0.0
  0
LINE
  5
85
  8
CORPO_ATOM
  6
CONTINUOUS
 62
     7
 10
105.990414205
 20
102.8785119315
 30
0.0
 11
105.5100319424
 21
102.3985154296
 31
0.0
  0
LINE
  5
86
  8
CORPO_ATOM
  6
CONTINUOUS
 62
     7
 10
103.490414205
 20
106.3416531088
 30
0.0
 11
104.990414205
 21
107.8416531088
 31
0.0
  0
LINE
  5
87
  8
CORPO_ATOM
  6
CONTINUOUS
 62
     7
 10
104.990414205
 20
107.8416531088
 30
0.0
 11
106.0472788769
 21
108.8985177806
 31
0.0
  0
LINE
  5
88
  8
CORPO_ATOM
  6
CONTINUOUS
 62
     7
 10
155.990414205
 20
102.8985177806
 30
0.0
 11
155.990606585
 21
102.8985177806
 31
0.0
  0
LINE
  5
89
  8
CORPO_ATOM
  6
CONTINUOUS
 62
     7
 10
103.490414205
 20
103.3985177806
 30
0.0
 11
103.490414205
 21
106.3416531088
 31
0.0
  0
LINE
  5
8A
  8
CORPO_ATOM
  6
CONTINUOUS
 62
     7
 10
156.4707988175
 20
102.3987140067
 30
0.0
 11
155.990414205
 21
102.8787183066
 31
0.0
  0
LINE
  5
8B
  8
CORPO_ATOM
  6
CONTINUOUS
 62
     7
 10
128.990414205
 20
102.3985177806
 30
0.0
 11
132.990414205
 21
102.3985177806
 31
0.0
  0
LINE
  5
8C
  8
CORPO_ATOM
  6
CONTINUOUS
 62
     7
 10
164.990414205
 20
100.6985201816
 30
0.0
 11
164.990414205
 21
101.3985177806
 31
0.0
  0
LINE
  5
8D
  8
CORPO_ATOM
  6
CONTINUOUS
 62
     7
 10
96.990414205
 20
101.3985177806
 30
0.0
 11
96.990414205
 21
100.6985201816
 31
0.0
  0
LINE
  5
8E
  8
CORPO_ATOM
  6
CONTINUOUS
 62
     7
 10
96.990414205
 20
100.6985201816
 30
0.0
 11
97.4904172211
 21
100.1985184525
 31
0.0
  0
LINE
  5
8F
  8
CORPO_ATOM
  6
CONTINUOUS
 62
     7
 10
164.490411189
 20
100.1985184525
 30
0.0
 11
164.990414205
 21
100.6985201816
 31
0.0
  0
LINE
  5
90
  8
CORPO_ATOM
  6
CONTINUOUS
 62
     7
 10
105.9904280367
 20
102.8985177806
 30
0.0
 11
105.490414205
 21
102.3985036724
 31
0.0
  0
LINE
  5
91
  8
CORPO_ATOM
  6
CONTINUOUS
 62
     7
 10
156.490414205
 20
102.3987140067
 30
0.0
 11
155.990606585
 21
102.8985177806
 31
0.0
  0
LINE
  5
92
  8
CORPO_ATOM
  6
CONTINUOUS
 62
     7
 10
128.990414205
 20
106.8985177806
 30
0.0
 11
128.990414205
 21
102.3985177806
 31
0.0
  0
LINE
  5
93
  8
CORPO_ATOM
  6
CONTINUOUS
 62
     7
 10
132.990414205
 20
102.3985177806
 30
0.0
 11
132.990414205
 21
106.8985177806
 31
0.0
  0
LINE
  5
95
  8
COPERTURA_ATOM
  6
CONTINUOUS
 62
     7
 10
127.590414205
 20
108.8985177806
 30
0.0
 11
127.2404142667
 21
108.8985177806
 31
0.0
  0
LINE
  5
96
  8
COPERTURA_ATOM
  6
CONTINUOUS
 62
     7
 10
129.9989394674
 20
108.8985177806
 30
0.0
 11
127.590414205
 21
108.8985177806
 31
0.0
  0
LINE
  5
97
  8
COPERTURA_ATOM
  6
CONTINUOUS
 62
     7
 10
131.7818956978
 20
108.8985177806
 30
0.0
 11
134.190414205
 21
108.8985177806
 31
0.0
  0
LINE
  5
98
  8
COPERTURA_ATOM
  6
CONTINUOUS
 62
     7
 10
134.190414205
 20
108.8985177806
 30
0.0
 11
134.7409442603
 21
108.8985177806
 31
0.0
  0
LINE
  5
99
  8
COPERTURA_ATOM
  6
CONTINUOUS
 62
     7
 10
131.490414205
 20
106.8985177806
 30
0.0
 11
134.3892563997
 21
106.8985177806
 31
0.0
  0
LINE
  5
9A
  8
COPERTURA_ATOM
  6
CONTINUOUS
 62
     7
 10
130.290414205
 20
106.8985177806
 30
0.0
 11
131.490414205
 21
106.8985177806
 31
0.0
  0
LINE
  5
9B
  8
COPERTURA_ATOM
  6
CONTINUOUS
 62
     7
 10
127.3840562755
 20
106.8985177806
 30
0.0
 11
130.290414205
 21
106.8985177806
 31
0.0
  0
LINE
  5
9C
  8
COPERTURA_ATOM
  6
CONTINUOUS
 62
     7
 10
127.290414205
 20
106.8985177806
 30
0.0
 11
127.290414205
 21
108.5985177806
 31
0.0
  0
ARC
  5
9D
  8
COPERTURA_ATOM
  6
CONTINUOUS
 62
     7
 10
127.590414205
 20
108.5985177806
 30
0.0
 40
0.3000000000000017
 50
90.0
 51
180.0
  0
ARC
  5
9E
  8
COPERTURA_ATOM
  6
CONTINUOUS
 62
     7
 10
129.9859821288
 20
106.4743451315
 30
0.0
 40
2.424207266239947
 50
82.7987844767
 51
89.6938046298
  0
ARC
  5
9F
  8
COPERTURA_ATOM
  6
CONTINUOUS
 62
     7
 10
130.8904002279
 20
111.9925460386
 30
0.0
 40
3.170509354078781
 50
259.0815136799
 51
280.915824821
  0
ARC
  5
A0
  8
COPERTURA_ATOM
  6
CONTINUOUS
 62
     7
 10
131.7948119285
 20
106.4756276488
 30
0.0
 40
2.422924537006501
 50
90.305337736
 51
97.2083425452
  0
ARC
  5
A1
  8
COPERTURA_ATOM
  6
CONTINUOUS
 62
     7
 10
134.190414205
 20
108.5985177806
 30
0.0
 40
0.2999999999999982
 50
0.0
 51
90.0
  0
LINE
  5
A2
  8
COPERTURA_ATOM
  6
CONTINUOUS
 62
     7
 10
134.490414205
 20
106.8985177806
 30
0.0
 11
134.490414205
 21
108.5985177806
 31
0.0
  0
LINE
  5
A4
  8
VITE_ATOM
  6
CONTINUOUS
 62
     7
 10
131.7819518662
 20
108.8985177806
 30
0.0
 11
129.9988768513
 21
108.8985177806
 31
0.0
  0
LINE
  5
A6
  8
3175116B
  6
CONTINUOUS
 62
     7
 10
105.490414205
 20
101.3985177806
 30
0.0
 11
105.490414205
 21
103.3985177806
 31
0.0
  0
LINE
  5
A7
  8
3175116B
  6
CONTINUOUS
 62
     7
 10
105.490414205
 20
108.3416531088
 30
0.0
 11
105.490414205
 21
108.6985177806
 31
0.0
  0
ARC
  5
A8
  8
3175116B
  6
CONTINUOUS
 62
     7
 10
104.490414205
 20
108.6985177806
 30
0.0
 40
1.000000000000001
 50
0.0
 51
122.3474434994
  0
LINE
  5
A9
  8
3175116B
  6
CONTINUOUS
 62
     7
 10
103.9553621238
 20
109.5433368562
 30
0.0
 11
99.4553621238
 21
106.6933368562
 31
0.0
  0
ARC
  5
AA
  8
3175116B
  6
CONTINUOUS
 62
     7
 10
99.990414205
 20
105.8485177806
 30
0.0
 40
0.9999999999999938
 50
122.3474434994
 51
180.0
  0
LINE
  5
AB
  8
3175116B
  6
CONTINUOUS
 62
     7
 10
98.990414205
 20
105.8485177806
 30
0.0
 11
98.990414205
 21
104.3985177806
 31
0.0
  0
LINE
  5
AC
  8
3175116B
  6
CONTINUOUS
 62
     7
 10
98.990414205
 20
104.3985177806
 30
0.0
 11
99.190414205
 21
104.3985177806
 31
0.0
  0
LINE
  5
AD
  8
3175116B
  6
CONTINUOUS
 62
     7
 10
99.190414205
 20
104.3985177806
 30
0.0
 11
99.190414205
 21
105.8485177806
 31
0.0
  0
ARC
  5
AE
  8
3175116B
  6
CONTINUOUS
 62
     7
 10
99.990414205
 20
105.8485177806
 30
0.0
 40
0.8000000000000013
 50
122.3474434994
 51
180.0
  0
LINE
  5
AF
  8
3175116B
  6
CONTINUOUS
 62
     7
 10
99.5623725401
 20
106.5243730411
 30
0.0
 11
104.0623725401
 21
109.3743730411
 31
0.0
  0
ARC
  5
B0
  8
3175116B
  6
CONTINUOUS
 62
     7
 10
104.490414205
 20
108.6985177806
 30
0.0
 40
0.799999999999995
 50
0.0
 51
122.3474434994
  0
LINE
  5
B1
  8
3175116B
  6
CONTINUOUS
 62
     7
 10
105.290414205
 20
108.6985177806
 30
0.0
 11
105.290414205
 21
108.1416531088
 31
0.0
  0
LINE
  5
B2
  8
3175116B
  6
CONTINUOUS
 62
     7
 10
105.290414205
 20
103.3985177806
 30
0.0
 11
105.290414205
 21
101.3985177806
 31
0.0
  0
LINE
  5
B3
  8
3175116B
  6
CONTINUOUS
 62
     7
 10
156.690414205
 20
108.6985177806
 30
0.0
 11
156.690414205
 21
108.1416531088
 31
0.0
  0
LINE
  5
B4
  8
3175116B
  6
CONTINUOUS
 62
     7
 10
156.690414205
 20
103.3985177806
 30
0.0
 11
156.690414205
 21
101.3985177806
 31
0.0
  0
ARC
  5
B5
  8
3175116B
  6
CONTINUOUS
 62
     7
 10
157.490414205
 20
108.6985177806
 30
0.0
 40
0.7999999999999925
 50
57.6525565006
 51
180.0
  0
LINE
  5
B6
  8
3175116B
  6
CONTINUOUS
 62
     7
 10
162.41845587
 20
106.5243730411
 30
0.0
 11
157.91845587
 21
109.3743730411
 31
0.0
  0
ARC
  5
B7
  8
3175116B
  6
CONTINUOUS
 62
     7
 10
161.990414205
 20
105.8485177806
 30
0.0
 40
0.800000000000009
 50
0.0
 51
57.6525565006
  0
LINE
  5
B8
  8
3175116B
  6
CONTINUOUS
 62
     7
 10
162.790414205
 20
104.3985177806
 30
0.0
 11
162.790414205
 21
105.8485177806
 31
0.0
  0
LINE
  5
B9
  8
3175116B
  6
CONTINUOUS
 62
     7
 10
162.990414205
 20
104.3985177806
 30
0.0
 11
162.790414205
 21
104.3985177806
 31
0.0
  0
LINE
  5
BA
  8
3175116B
  6
CONTINUOUS
 62
     7
 10
162.990414205
 20
105.8485177806
 30
0.0
 11
162.990414205
 21
104.3985177806
 31
0.0
  0
ARC
  5
BB
  8
3175116B
  6
CONTINUOUS
 62
     7
 10
161.990414205
 20
105.8485177806
 30
0.0
 40
0.9999999999999981
 50
0.0
 51
57.6525565006
  0
LINE
  5
BC
  8
3175116B
  6
CONTINUOUS
 62
     7
 10
158.0254662862
 20
109.5433368562
 30
0.0
 11
162.5254662862
 21
106.6933368562
 31
0.0
  0
ARC
  5
BD
  8
3175116B
  6
CONTINUOUS
 62
     7
 10
157.490414205
 20
108.6985177806
 30
0.0
 40
1.000000000000001
 50
57.6525565006
 51
180.0
  0
LINE
  5
BE
  8
3175116B
  6
CONTINUOUS
 62
     7
 10
156.490414205
 20
101.3985177806
 30
0.0
 11
156.490414205
 21
103.3985177806
 31
0.0
  0
LINE
  5
BF
  8
3175116B
  6
CONTINUOUS
 62
     7
 10
156.490414205
 20
108.3416531088
 30
0.0
 11
156.490414205
 21
108.6985177806
 31
0.0
  0
POINT
  5
C2
  8
DV2_DEFAULT
  6
CENTER2
 62
     7
 10
102.490414205
 20
108.6155365076
 30
0.0
  0
POINT
  5
C3
  8
DV2_DEFAULT
  6
CENTER2
 62
     7
 10
159.490414205
 20
108.6155365076
 30
0.0
  0
POINT
  5
C4
  8
DV2_DEFAULT
  6
CENTER2
 62
     7
 10
159.490414205
 20
108.6155365076
 30
0.0
  0
ENDBLK
  5
C6
  8
0
  0
BLOCK
  8
0
  2
GDIMGGROUP
 70
     0
 10
0.0
 20
0.0
 30
0.0
  3
GDIMGGROUP
  1

  0
POLYLINE
  5
C9
  8
DEFAULT
  6
CONTINUOUS
 62
     7
 66
     1
 10
0.0
 20
0.0
 30
0.0
  0
VERTEX
  5
164
  8
DEFAULT
  6
CONTINUOUS
 62
     7
 10
100.4904143131
 20
84.3914647747
 30
0.0
  0
VERTEX
  5
165
  8
DEFAULT
  6
CONTINUOUS
 62
     7
 10
100.4904143131
 20
85.5581314774
 30
0.0
  0
VERTEX
  5
166
  8
DEFAULT
  6
CONTINUOUS
 62
     7
 10
96.990414205
 20
84.974798126
 30
0.0
  0
VERTEX
  5
167
  8
DEFAULT
  6
CONTINUOUS
 62
     7
 10
100.4904143131
 20
84.3914647747
 30
0.0
  0
SEQEND
  5
21B
  8
DEFAULT
  6
CONTINUOUS
 62
     7
  0
POLYLINE
  5
CA
  8
DEFAULT
  6
CONTINUOUS
 62
     7
 66
     1
 10
0.0
 20
0.0
 30
0.0
  0
VERTEX
  5
168
  8
DEFAULT
  6
CONTINUOUS
 62
     7
 10
161.4904177925
 20
84.3914647747
 30
0.0
  0
VERTEX
  5
169
  8
DEFAULT
  6
CONTINUOUS
 62
     7
 10
161.4904177925
 20
85.5581314774
 30
0.0
  0
VERTEX
  5
16A
  8
DEFAULT
  6
CONTINUOUS
 62
     7
 10
164.9904179005
 20
84.974798126
 30
0.0
  0
VERTEX
  5
16B
  8
DEFAULT
  6
CONTINUOUS
 62
     7
 10
161.4904177925
 20
84.3914647747
 30
0.0
  0
SEQEND
  5
21C
  8
DEFAULT
  6
CONTINUOUS
 62
     7
  0
LINE
  5
CB
  8
DEFAULT
  6
CONTINUOUS
 62
     7
 10
96.990414205
 20
98.7035201246
 30
0.0
 11
96.990414205
 21
83.9947981144
 31
0.0
  0
LINE
  5
CC
  8
DEFAULT
  6
CONTINUOUS
 62
     7
 10
164.990414205
 20
98.7035201246
 30
0.0
 11
164.990414205
 21
83.9947981144
 31
0.0
  0
LINE
  5
CD
  8
DEFAULT
  6
CONTINUOUS
 62
     7
 10
96.990414205
 20
84.974798126
 30
0.0
 11
164.9904179005
 21
84.974798126
 31
0.0
  0
TEXT
  5
CF
  8
DEFAULT
  6
CONTINUOUS
 62
     7
 10
130.9468996531
 20
86.199798126
 30
0.0
 40
3.5
  1
68
  7
SEACAD_ARIAL
 11
130.9468996531
 21
89.699798126
 31
0.0
 73
     3
  0
TEXT
  5
D1
  8
DEFAULT
  6
CONTINUOUS
 62
     7
 10
125.5556715829
 20
86.199798126
 30
0.0
 40
3.5
  1
O
  7
SEACAD_SOLID_EDGE_ANSI1_SY
 11
125.5556715829
 21
89.699798126
 31
0.0
 73
     3
  0
ENDBLK
  5
D3
  8
0
  0
BLOCK
  8
0
  2
GDIMGGROUP1
 70
     0
 10
0.0
 20
0.0
 30
0.0
  3
GDIMGGROUP1
  1

  0
POLYLINE
  5
D6
  8
DEFAULT
  6
CONTINUOUS
 62
     7
 66
     1
 10
0.0
 20
0.0
 30
0.0
  0
VERTEX
  5
16C
  8
DEFAULT
  6
CONTINUOUS
 62
     7
 10
155.990414097
 20
124.8628047305
 30
0.0
  0
VERTEX
  5
16D
  8
DEFAULT
  6
CONTINUOUS
 62
     7
 10
155.990414097
 20
123.6961380278
 30
0.0
  0
VERTEX
  5
16E
  8
DEFAULT
  6
CONTINUOUS
 62
     7
 10
159.490414205
 20
124.2794713791
 30
0.0
  0
VERTEX
  5
16F
  8
DEFAULT
  6
CONTINUOUS
 62
     7
 10
155.990414097
 20
124.8628047305
 30
0.0
  0
SEQEND
  5
21D
  8
DEFAULT
  6
CONTINUOUS
 62
     7
  0
POLYLINE
  5
D7
  8
DEFAULT
  6
CONTINUOUS
 62
     7
 66
     1
 10
0.0
 20
0.0
 30
0.0
  0
VERTEX
  5
170
  8
DEFAULT
  6
CONTINUOUS
 62
     7
 10
105.9904142833
 20
124.8628047305
 30
0.0
  0
VERTEX
  5
171
  8
DEFAULT
  6
CONTINUOUS
 62
     7
 10
105.9904142833
 20
123.6961380278
 30
0.0
  0
VERTEX
  5
172
  8
DEFAULT
  6
CONTINUOUS
 62
     7
 10
102.4904141752
 20
124.2794713791
 30
0.0
  0
VERTEX
  5
173
  8
DEFAULT
  6
CONTINUOUS
 62
     7
 10
105.9904142833
 20
124.8628047305
 30
0.0
  0
SEQEND
  5
21E
  8
DEFAULT
  6
CONTINUOUS
 62
     7
  0
LINE
  5
D8
  8
DEFAULT
  6
CONTINUOUS
 62
     7
 10
159.490414205
 20
110.6105365645
 30
0.0
 11
159.490414205
 21
125.2594713908
 31
0.0
  0
LINE
  5
D9
  8
DEFAULT
  6
CONTINUOUS
 62
     7
 10
102.490414205
 20
110.6105365645
 30
0.0
 11
102.490414205
 21
125.2594713908
 31
0.0
  0
LINE
  5
DA
  8
DEFAULT
  6
CONTINUOUS
 62
     7
 10
159.490414205
 20
124.2794713791
 30
0.0
 11
102.4904141752
 21
124.2794713791
 31
0.0
  0
TEXT
  5
DB
  8
DEFAULT
  6
CONTINUOUS
 62
     7
 10
130.9468977904
 20
125.5044713791
 30
0.0
 40
3.5
  1
57
  7
SEACAD_ARIAL
 11
130.9468977904
 21
129.0044713791
 31
0.0
 73
     3
  0
TEXT
  5
DC
  8
DEFAULT
  6
CONTINUOUS
 62
     7
 10
125.5556697203
 20
125.5044713791
 30
0.0
 40
3.5
  1
O
  7
SEACAD_SOLID_EDGE_ANSI1_SY
 11
125.5556697203
 21
129.0044713791
 31
0.0
 73
     3
  0
ENDBLK
  5
DE
  8
0
  0
BLOCK
  8
0
  2
GDIMGGROUP2
 70
     0
 10
0.0
 20
0.0
 30
0.0
  3
GDIMGGROUP2
  1

  0
POLYLINE
  5
E1
  8
DEFAULT
  6
CONTINUOUS
 62
     7
 66
     1
 10
0.0
 20
0.0
 30
0.0
  0
VERTEX
  5
174
  8
DEFAULT
  6
CONTINUOUS
 62
     7
 10
87.1957017503
 20
104.8985178886
 30
0.0
  0
VERTEX
  5
175
  8
DEFAULT
  6
CONTINUOUS
 62
     7
 10
88.362368453
 20
104.8985178886
 30
0.0
  0
VERTEX
  5
176
  8
DEFAULT
  6
CONTINUOUS
 62
     7
 10
87.7790351017
 20
101.3985177806
 30
0.0
  0
VERTEX
  5
177
  8
DEFAULT
  6
CONTINUOUS
 62
     7
 10
87.1957017503
 20
104.8985178886
 30
0.0
  0
SEQEND
  5
21F
  8
DEFAULT
  6
CONTINUOUS
 62
     7
  0
POLYLINE
  5
E2
  8
DEFAULT
  6
CONTINUOUS
 62
     7
 66
     1
 10
0.0
 20
0.0
 30
0.0
  0
VERTEX
  5
178
  8
DEFAULT
  6
CONTINUOUS
 62
     7
 10
87.1957017503
 20
96.6985183445
 30
0.0
  0
VERTEX
  5
179
  8
DEFAULT
  6
CONTINUOUS
 62
     7
 10
88.362368453
 20
96.6985183445
 30
0.0
  0
VERTEX
  5
17A
  8
DEFAULT
  6
CONTINUOUS
 62
     7
 10
87.7790351017
 20
100.1985184525
 30
0.0
  0
VERTEX
  5
17B
  8
DEFAULT
  6
CONTINUOUS
 62
     7
 10
87.1957017503
 20
96.6985183445
 30
0.0
  0
SEQEND
  5
220
  8
DEFAULT
  6
CONTINUOUS
 62
     7
  0
LINE
  5
E3
  8
DEFAULT
  6
CONTINUOUS
 62
     7
 10
94.9954141481
 20
101.3985177806
 30
0.0
 11
86.79903509
 21
101.3985177806
 31
0.0
  0
LINE
  5
E4
  8
DEFAULT
  6
CONTINUOUS
 62
     7
 10
95.4954171642
 20
100.1985184525
 30
0.0
 11
86.79903509
 21
100.1985184525
 31
0.0
  0
LINE
  5
E5
  8
DEFAULT
  6
CONTINUOUS
 62
     7
 10
87.7790351017
 20
108.3985179967
 30
0.0
 11
87.7790351017
 21
88.9269834688
 31
0.0
  0
TEXT
  5
E6
  8
DEFAULT
  6
CONTINUOUS
 62
     7
 10
86.5540351017
 20
90.1519837093
 30
0.0
 40
3.5
  1
1.2
 50
90.0
  7
SEACAD_ARIAL
 11
83.0540351017
 21
90.1519837093
 31
0.0
 73
     3
  0
ENDBLK
  5
E8
  8
0
  0
BLOCK
  8
0
  2
GDIMGGROUP3
 70
     0
 10
0.0
 20
0.0
 30
0.0
  3
GDIMGGROUP3
  1

  0
POLYLINE
  5
EB
  8
DEFAULT
  6
CONTINUOUS
 62
     7
 66
     1
 10
0.0
 20
0.0
 30
0.0
  0
VERTEX
  5
17C
  8
DEFAULT
  6
CONTINUOUS
 62
     7
 10
87.1957017503
 20
104.8985178886
 30
0.0
  0
VERTEX
  5
17D
  8
DEFAULT
  6
CONTINUOUS
 62
     7
 10
88.362368453
 20
104.8985178886
 30
0.0
  0
VERTEX
  5
17E
  8
DEFAULT
  6
CONTINUOUS
 62
     7
 10
87.7790351017
 20
101.3985177806
 30
0.0
  0
VERTEX
  5
17F
  8
DEFAULT
  6
CONTINUOUS
 62
     7
 10
87.1957017503
 20
104.8985178886
 30
0.0
  0
SEQEND
  5
221
  8
DEFAULT
  6
CONTINUOUS
 62
     7
  0
POLYLINE
  5
EC
  8
DEFAULT
  6
CONTINUOUS
 62
     7
 66
     1
 10
0.0
 20
0.0
 30
0.0
  0
VERTEX
  5
180
  8
DEFAULT
  6
CONTINUOUS
 62
     7
 10
87.1957017503
 20
106.1985175429
 30
0.0
  0
VERTEX
  5
181
  8
DEFAULT
  6
CONTINUOUS
 62
     7
 10
88.362368453
 20
106.1985175429
 30
0.0
  0
VERTEX
  5
182
  8
DEFAULT
  6
CONTINUOUS
 62
     7
 10
87.7790351017
 20
109.698517651
 30
0.0
  0
VERTEX
  5
183
  8
DEFAULT
  6
CONTINUOUS
 62
     7
 10
87.1957017503
 20
106.1985175429
 30
0.0
  0
SEQEND
  5
222
  8
DEFAULT
  6
CONTINUOUS
 62
     7
  0
LINE
  5
ED
  8
DEFAULT
  6
CONTINUOUS
 62
     7
 10
94.9954141481
 20
101.3985177806
 30
0.0
 11
86.79903509
 21
101.3985177806
 31
0.0
  0
LINE
  5
EE
  8
DEFAULT
  6
CONTINUOUS
 62
     7
 10
102.4954141481
 20
109.6985177806
 30
0.0
 11
86.79903509
 21
109.6985177806
 31
0.0
  0
LINE
  5
EF
  8
DEFAULT
  6
CONTINUOUS
 62
     7
 10
87.7790351017
 20
101.3985177806
 30
0.0
 11
87.7790351017
 21
109.698517651
 31
0.0
  0
TEXT
  5
F0
  8
DEFAULT
  6
CONTINUOUS
 62
     7
 10
86.5540351017
 20
104.1789524984
 30
0.0
 40
3.5
  1
8
 50
90.0
  7
SEACAD_ARIAL
 11
83.0540351017
 21
104.1789524984
 31
0.0
 73
     3
  0
ENDBLK
  5
F2
  8
0
  0
BLOCK
  8
0
  2
SE2
 70
     0
 10
0.0
 20
0.0
 30
0.0
  3
SE2
  1

  0
LINE
  5
F5
  8
CORPO_ATOM
  6
CONTINUOUS
 62
     7
 10
35.590261316
 20
213.7531564851
 30
0.0
 11
35.590261316
 21
145.7531564851
 31
0.0
  0
LINE
  5
F6
  8
CORPO_ATOM
  6
CONTINUOUS
 62
     7
 10
34.8902637169
 20
145.7531564851
 30
0.0
 11
34.8902637169
 21
213.7531564851
 31
0.0
  0
LINE
  5
F7
  8
CORPO_ATOM
  6
CONTINUOUS
 62
     7
 10
34.3902619878
 20
146.2531595011
 30
0.0
 11
34.3902619878
 21
213.253153469
 31
0.0
  0
LINE
  5
F8
  8
CORPO_ATOM
  6
CONTINUOUS
 62
     7
 10
41.090261316
 20
161.3564519393
 30
0.0
 11
42.5902656575
 21
161.3564525145
 31
0.0
  0
LINE
  5
F9
  8
CORPO_ATOM
  6
CONTINUOUS
 62
     7
 10
35.590261316
 20
174.7282186745
 30
0.0
 11
37.590261316
 21
174.7282186745
 31
0.0
  0
LINE
  5
FA
  8
CORPO_ATOM
  6
CONTINUOUS
 62
     7
 10
43.0333966441
 20
175.7531564851
 30
0.0
 11
43.0333966441
 21
175.6531564851
 31
0.0
  0
LINE
  5
FB
  8
CORPO_ATOM
  6
CONTINUOUS
 62
     7
 10
43.0333966441
 20
183.8531564851
 30
0.0
 11
43.0333966441
 21
183.7531564851
 31
0.0
  0
LINE
  5
FC
  8
CORPO_ATOM
  6
CONTINUOUS
 62
     7
 10
35.590261316
 20
184.7780942956
 30
0.0
 11
37.590261316
 21
184.7780942956
 31
0.0
  0
LINE
  5
FD
  8
CORPO_ATOM
  6
CONTINUOUS
 62
     7
 10
40.5333966441
 20
175.7531564851
 30
0.0
 11
40.5333966441
 21
175.5531564851
 31
0.0
  0
ARC
  5
FE
  8
CORPO_ATOM
  6
CONTINUOUS
 62
     7
 10
42.0333966441
 20
175.5531564851
 30
0.0
 40
1.5
 50
180.0
 51
270.0
  0
LINE
  5
FF
  8
CORPO_ATOM
  6
CONTINUOUS
 62
     7
 10
42.0333966441
 20
174.0531564851
 30
0.0
 11
43.090261316
 21
174.0531564851
 31
0.0
  0
LINE
  5
100
  8
CORPO_ATOM
  6
CONTINUOUS
 62
     7
 10
43.090261316
 20
174.0531564851
 30
0.0
 11
43.090261316
 21
175.7531564851
 31
0.0
  0
LINE
  5
101
  8
CORPO_ATOM
  6
CONTINUOUS
 62
     7
 10
43.090261316
 20
183.7531564851
 30
0.0
 11
43.090261316
 21
185.0531564851
 31
0.0
  0
LINE
  5
102
  8
CORPO_ATOM
  6
CONTINUOUS
 62
     7
 10
42.0333966441
 20
185.0531564851
 30
0.0
 11
43.090261316
 21
185.0531564851
 31
0.0
  0
ARC
  5
103
  8
CORPO_ATOM
  6
CONTINUOUS
 62
     7
 10
42.0333966441
 20
183.5531564851
 30
0.0
 40
1.500000000000001
 50
90.0
 51
172.3377443392
  0
ARC
  5
104
  8
CORPO_ATOM
  6
CONTINUOUS
 62
     7
 10
42.2833966441
 20
183.3531564851
 30
0.0
 40
0.4999999999999996
 50
90.0
 51
126.8698976458
  0
LINE
  5
105
  8
CORPO_ATOM
  6
CONTINUOUS
 62
     7
 10
42.2833966441
 20
183.8531564851
 30
0.0
 11
43.0333966441
 21
183.8531564851
 31
0.0
  0
LINE
  5
106
  8
CORPO_ATOM
  6
CONTINUOUS
 62
     7
 10
42.2833966441
 20
175.6531564851
 30
0.0
 11
43.0333966441
 21
175.6531564851
 31
0.0
  0
ARC
  5
107
  8
CORPO_ATOM
  6
CONTINUOUS
 62
     7
 10
42.2833966441
 20
176.1531564851
 30
0.0
 40
0.5000000000000004
 50
233.1301023542
 51
270.0
  0
LINE
  5
108
  8
CORPO_ATOM
  6
CONTINUOUS
 62
     7
 10
37.590261316
 20
183.5531564851
 30
0.0
 11
37.590261316
 21
182.3531564851
 31
0.0
  0
LINE
  5
109
  8
CORPO_ATOM
  6
CONTINUOUS
 62
     7
 10
37.590261316
 20
183.5531564851
 30
0.0
 11
37.590261316
 21
185.0531564851
 31
0.0
  0
LINE
  5
10A
  8
CORPO_ATOM
  6
CONTINUOUS
 62
     7
 10
37.590261316
 20
174.0531564851
 30
0.0
 11
37.590261316
 21
175.5531564851
 31
0.0
  0
LINE
  5
10B
  8
CORPO_ATOM
  6
CONTINUOUS
 62
     7
 10
37.590261316
 20
177.1531564851
 30
0.0
 11
37.590261316
 21
175.5531564851
 31
0.0
  0
LINE
  5
10C
  8
CORPO_ATOM
  6
CONTINUOUS
 62
     7
 10
37.590261316
 20
182.3531564851
 30
0.0
 11
38.590261316
 21
182.3531564851
 31
0.0
  0
LINE
  5
10D
  8
CORPO_ATOM
  6
CONTINUOUS
 62
     7
 10
42.0333966441
 20
185.0531564851
 30
0.0
 11
37.590261316
 21
185.0531564851
 31
0.0
  0
LINE
  5
10E
  8
CORPO_ATOM
  6
CONTINUOUS
 62
     7
 10
43.090261316
 20
204.9759140663
 30
0.0
 11
43.090261316
 21
185.0531564851
 31
0.0
  0
LINE
  5
10F
  8
CORPO_ATOM
  6
CONTINUOUS
 62
     7
 10
41.090261316
 20
204.9759140663
 30
0.0
 11
43.090261316
 21
204.9759140663
 31
0.0
  0
LINE
  5
110
  8
CORPO_ATOM
  6
CONTINUOUS
 62
     7
 10
41.090261316
 20
205.0256290933
 30
0.0
 11
41.090261316
 21
204.9759140663
 31
0.0
  0
LINE
  5
111
  8
CORPO_ATOM
  6
CONTINUOUS
 62
     7
 10
36.590261316
 20
205.1747251125
 30
0.0
 11
41.090261316
 21
205.1747251125
 31
0.0
  0
LINE
  5
112
  8
CORPO_ATOM
  6
CONTINUOUS
 62
     7
 10
35.590261316
 20
205.2406074655
 30
0.0
 11
36.590261316
 21
205.2406074655
 31
0.0
  0
LINE
  5
113
  8
CORPO_ATOM
  6
CONTINUOUS
 62
     7
 10
43.090261316
 20
174.0531564851
 30
0.0
 11
43.090261316
 21
163.4428991779
 31
0.0
  0
LINE
  5
114
  8
CORPO_ATOM
  6
CONTINUOUS
 62
     7
 10
35.590261316
 20
154.2657055047
 30
0.0
 11
36.590261316
 21
154.2657055047
 31
0.0
  0
LINE
  5
115
  8
CORPO_ATOM
  6
CONTINUOUS
 62
     7
 10
36.590261316
 20
154.3315878576
 30
0.0
 11
41.090261316
 21
154.3315878576
 31
0.0
  0
LINE
  5
116
  8
CORPO_ATOM
  6
CONTINUOUS
 62
     7
 10
41.090261316
 20
154.5303989039
 30
0.0
 11
41.090261316
 21
154.4806838768
 31
0.0
  0
LINE
  5
117
  8
CORPO_ATOM
  6
CONTINUOUS
 62
     7
 10
41.090261316
 20
154.5303989039
 30
0.0
 11
43.090261316
 21
154.5303989039
 31
0.0
  0
LINE
  5
118
  8
CORPO_ATOM
  6
CONTINUOUS
 62
     7
 10
43.090261316
 20
160.1514854702
 30
0.0
 11
43.090261316
 21
154.5303989039
 31
0.0
  0
LINE
  5
119
  8
CORPO_ATOM
  6
CONTINUOUS
 62
     7
 10
43.090261316
 20
163.4428991779
 30
0.0
 11
43.090261316
 21
163.334784558
 31
0.0
  0
LINE
  5
11A
  8
CORPO_ATOM
  6
CONTINUOUS
 62
     7
 10
43.090261316
 20
160.5942253989
 30
0.0
 11
43.0902657475
 21
161.0017003601
 31
0.0
  0
LINE
  5
11B
  8
CORPO_ATOM
  6
CONTINUOUS
 62
     7
 10
43.090261316
 20
160.5942253989
 30
0.0
 11
43.090261316
 21
160.1514854702
 31
0.0
  0
LINE
  5
11C
  8
CORPO_ATOM
  6
CONTINUOUS
 62
     7
 10
36.590261316
 20
205.1747251125
 30
0.0
 11
36.590261316
 21
207.2531564851
 31
0.0
  0
POLYLINE
  5
11D
  8
CORPO_ATOM
  6
CONTINUOUS
 62
     7
 66
     1
 10
0.0
 20
0.0
 30
0.0
  0
VERTEX
  5
184
  8
CORPO_ATOM
  6
CONTINUOUS
 62
     7
 10
40.790261316
 20
163.4428991779
 30
0.0
  0
VERTEX
  5
185
  8
CORPO_ATOM
  6
CONTINUOUS
 62
     7
 10
40.7928054159
 20
163.4409389225
 30
0.0
  0
VERTEX
  5
186
  8
CORPO_ATOM
  6
CONTINUOUS
 62
     7
 10
40.7953749778
 20
163.4389732309
 30
0.0
  0
VERTEX
  5
187
  8
CORPO_ATOM
  6
CONTINUOUS
 62
     7
 10
40.7979451379
 20
163.4370213492
 30
0.0
  0
VERTEX
  5
188
  8
CORPO_ATOM
  6
CONTINUOUS
 62
     7
 10
40.8005157453
 20
163.4350834093
 30
0.0
  0
VERTEX
  5
189
  8
CORPO_ATOM
  6
CONTINUOUS
 62
     7
 10
40.8030866491
 20
163.433159543
 30
0.0
  0
VERTEX
  5
18A
  8
CORPO_ATOM
  6
CONTINUOUS
 62
     7
 10
40.8056576984
 20
163.4312498821
 30
0.0
  0
VERTEX
  5
18B
  8
CORPO_ATOM
  6
CONTINUOUS
 62
     7
 10
40.8082287422
 20
163.4293545584
 30
0.0
  0
VERTEX
  5
18C
  8
CORPO_ATOM
  6
CONTINUOUS
 62
     7
 10
40.8107996298
 20
163.4274737038
 30
0.0
  0
VERTEX
  5
18D
  8
CORPO_ATOM
  6
CONTINUOUS
 62
     7
 10
40.8133702101
 20
163.42560745
 30
0.0
  0
VERTEX
  5
18E
  8
CORPO_ATOM
  6
CONTINUOUS
 62
     7
 10
40.8159403322
 20
163.4237559289
 30
0.0
  0
VERTEX
  5
18F
  8
CORPO_ATOM
  6
CONTINUOUS
 62
     7
 10
40.8185098452
 20
163.4219192723
 30
0.0
  0
VERTEX
  5
190
  8
CORPO_ATOM
  6
CONTINUOUS
 62
     7
 10
40.8210785982
 20
163.420097612
 30
0.0
  0
VERTEX
  5
191
  8
CORPO_ATOM
  6
CONTINUOUS
 62
     7
 10
40.8236464403
 20
163.4182910799
 30
0.0
  0
VERTEX
  5
192
  8
CORPO_ATOM
  6
CONTINUOUS
 62
     7
 10
40.8262132206
 20
163.4164998077
 30
0.0
  0
VERTEX
  5
193
  8
CORPO_ATOM
  6
CONTINUOUS
 62
     7
 10
40.8287787882
 20
163.4147239273
 30
0.0
  0
VERTEX
  5
194
  8
CORPO_ATOM
  6
CONTINUOUS
 62
     7
 10
40.8313429921
 20
163.4129635705
 30
0.0
  0
VERTEX
  5
195
  8
CORPO_ATOM
  6
CONTINUOUS
 62
     7
 10
40.8339056814
 20
163.4112188691
 30
0.0
  0
VERTEX
  5
196
  8
CORPO_ATOM
  6
CONTINUOUS
 62
     7
 10
40.8364667053
 20
163.4094899549
 30
0.0
  0
VERTEX
  5
197
  8
CORPO_ATOM
  6
CONTINUOUS
 62
     7
 10
40.8390259128
 20
163.4077769597
 30
0.0
  0
VERTEX
  5
198
  8
CORPO_ATOM
  6
CONTINUOUS
 62
     7
 10
40.8415831529
 20
163.4060800155
 30
0.0
  0
VERTEX
  5
199
  8
CORPO_ATOM
  6
CONTINUOUS
 62
     7
 10
40.8441382749
 20
163.4043992539
 30
0.0
  0
VERTEX
  5
19A
  8
CORPO_ATOM
  6
CONTINUOUS
 62
     7
 10
40.8466911277
 20
163.4027348068
 30
0.0
  0
VERTEX
  5
19B
  8
CORPO_ATOM
  6
CONTINUOUS
 62
     7
 10
40.8492415604
 20
163.401086806
 30
0.0
  0
VERTEX
  5
19C
  8
CORPO_ATOM
  6
CONTINUOUS
 62
     7
 10
40.8517894222
 20
163.3994553834
 30
0.0
  0
VERTEX
  5
19D
  8
CORPO_ATOM
  6
CONTINUOUS
 62
     7
 10
40.8543345621
 20
163.3978406707
 30
0.0
  0
VERTEX
  5
19E
  8
CORPO_ATOM
  6
CONTINUOUS
 62
     7
 10
40.8568768293
 20
163.3962427998
 30
0.0
  0
VERTEX
  5
19F
  8
CORPO_ATOM
  6
CONTINUOUS
 62
     7
 10
40.8594160727
 20
163.3946619025
 30
0.0
  0
VERTEX
  5
1A0
  8
CORPO_ATOM
  6
CONTINUOUS
 62
     7
 10
40.8619521415
 20
163.3930981106
 30
0.0
  0
VERTEX
  5
1A1
  8
CORPO_ATOM
  6
CONTINUOUS
 62
     7
 10
40.8644848848
 20
163.3915515559
 30
0.0
  0
VERTEX
  5
1A2
  8
CORPO_ATOM
  6
CONTINUOUS
 62
     7
 10
40.8670141516
 20
163.3900223703
 30
0.0
  0
VERTEX
  5
1A3
  8
CORPO_ATOM
  6
CONTINUOUS
 62
     7
 10
40.8695397911
 20
163.3885106855
 30
0.0
  0
VERTEX
  5
1A4
  8
CORPO_ATOM
  6
CONTINUOUS
 62
     7
 10
40.8720616523
 20
163.3870166334
 30
0.0
  0
VERTEX
  5
1A5
  8
CORPO_ATOM
  6
CONTINUOUS
 62
     7
 10
40.8745795843
 20
163.3855403458
 30
0.0
  0
VERTEX
  5
1A6
  8
CORPO_ATOM
  6
CONTINUOUS
 62
     7
 10
40.8770784052
 20
163.3840906534
 30
0.0
  0
VERTEX
  5
1A7
  8
CORPO_ATOM
  6
CONTINUOUS
 62
     7
 10
40.8795740154
 20
163.3826582725
 30
0.0
  0
VERTEX
  5
1A8
  8
CORPO_ATOM
  6
CONTINUOUS
 62
     7
 10
40.8820677114
 20
163.3812425248
 30
0.0
  0
VERTEX
  5
1A9
  8
CORPO_ATOM
  6
CONTINUOUS
 62
     7
 10
40.8845592627
 20
163.3798436222
 30
0.0
  0
VERTEX
  5
1AA
  8
CORPO_ATOM
  6
CONTINUOUS
 62
     7
 10
40.8870484392
 20
163.3784617764
 30
0.0
  0
VERTEX
  5
1AB
  8
CORPO_ATOM
  6
CONTINUOUS
 62
     7
 10
40.8895350106
 20
163.3770971993
 30
0.0
  0
VERTEX
  5
1AC
  8
CORPO_ATOM
  6
CONTINUOUS
 62
     7
 10
40.8920187465
 20
163.3757501026
 30
0.0
  0
VERTEX
  5
1AD
  8
CORPO_ATOM
  6
CONTINUOUS
 62
     7
 10
40.8944994167
 20
163.3744206981
 30
0.0
  0
VERTEX
  5
1AE
  8
CORPO_ATOM
  6
CONTINUOUS
 62
     7
 10
40.8969767909
 20
163.3731091978
 30
0.0
  0
VERTEX
  5
1AF
  8
CORPO_ATOM
  6
CONTINUOUS
 62
     7
 10
40.8994506388
 20
163.3718158134
 30
0.0
  0
VERTEX
  5
1B0
  8
CORPO_ATOM
  6
CONTINUOUS
 62
     7
 10
40.9019207301
 20
163.3705407566
 30
0.0
  0
VERTEX
  5
1B1
  8
CORPO_ATOM
  6
CONTINUOUS
 62
     7
 10
40.9043868345
 20
163.3692842394
 30
0.0
  0
VERTEX
  5
1B2
  8
CORPO_ATOM
  6
CONTINUOUS
 62
     7
 10
40.9068487217
 20
163.3680464735
 30
0.0
  0
VERTEX
  5
1B3
  8
CORPO_ATOM
  6
CONTINUOUS
 62
     7
 10
40.9093061614
 20
163.3668276707
 30
0.0
  0
VERTEX
  5
1B4
  8
CORPO_ATOM
  6
CONTINUOUS
 62
     7
 10
40.9117589234
 20
163.3656280429
 30
0.0
  0
VERTEX
  5
1B5
  8
CORPO_ATOM
  6
CONTINUOUS
 62
     7
 10
40.9142067773
 20
163.3644478018
 30
0.0
  0
VERTEX
  5
1B6
  8
CORPO_ATOM
  6
CONTINUOUS
 62
     7
 10
40.9166494929
 20
163.3632871593
 30
0.0
  0
VERTEX
  5
1B7
  8
CORPO_ATOM
  6
CONTINUOUS
 62
     7
 10
40.9190868398
 20
163.3621463272
 30
0.0
  0
VERTEX
  5
1B8
  8
CORPO_ATOM
  6
CONTINUOUS
 62
     7
 10
40.9215185878
 20
163.3610255173
 30
0.0
  0
VERTEX
  5
1B9
  8
CORPO_ATOM
  6
CONTINUOUS
 62
     7
 10
40.9239445066
 20
163.3599249414
 30
0.0
  0
VERTEX
  5
1BA
  8
CORPO_ATOM
  6
CONTINUOUS
 62
     7
 10
40.9263643659
 20
163.3588448113
 30
0.0
  0
VERTEX
  5
1BB
  8
CORPO_ATOM
  6
CONTINUOUS
 62
     7
 10
40.9287779354
 20
163.3577853388
 30
0.0
  0
VERTEX
  5
1BC
  8
CORPO_ATOM
  6
CONTINUOUS
 62
     7
 10
40.9311849848
 20
163.3567467358
 30
0.0
  0
VERTEX
  5
1BD
  8
CORPO_ATOM
  6
CONTINUOUS
 62
     7
 10
40.9335852838
 20
163.355729214
 30
0.0
  0
VERTEX
  5
1BE
  8
CORPO_ATOM
  6
CONTINUOUS
 62
     7
 10
40.9359786022
 20
163.3547329852
 30
0.0
  0
VERTEX
  5
1BF
  8
CORPO_ATOM
  6
CONTINUOUS
 62
     7
 10
40.9383647096
 20
163.3537582614
 30
0.0
  0
VERTEX
  5
1C0
  8
CORPO_ATOM
  6
CONTINUOUS
 62
     7
 10
40.9407433757
 20
163.3528052542
 30
0.0
  0
VERTEX
  5
1C1
  8
CORPO_ATOM
  6
CONTINUOUS
 62
     7
 10
40.9431143703
 20
163.3518741755
 30
0.0
  0
VERTEX
  5
1C2
  8
CORPO_ATOM
  6
CONTINUOUS
 62
     7
 10
40.9454774631
 20
163.3509652371
 30
0.0
  0
VERTEX
  5
1C3
  8
CORPO_ATOM
  6
CONTINUOUS
 62
     7
 10
40.9478324237
 20
163.3500786508
 30
0.0
  0
VERTEX
  5
1C4
  8
CORPO_ATOM
  6
CONTINUOUS
 62
     7
 10
40.950179022
 20
163.3492146284
 30
0.0
  0
VERTEX
  5
1C5
  8
CORPO_ATOM
  6
CONTINUOUS
 62
     7
 10
40.9525170275
 20
163.3483733818
 30
0.0
  0
VERTEX
  5
1C6
  8
CORPO_ATOM
  6
CONTINUOUS
 62
     7
 10
40.95484621
 20
163.3475551227
 30
0.0
  0
VERTEX
  5
1C7
  8
CORPO_ATOM
  6
CONTINUOUS
 62
     7
 10
40.9571663392
 20
163.346760063
 30
0.0
  0
VERTEX
  5
1C8
  8
CORPO_ATOM
  6
CONTINUOUS
 62
     7
 10
40.9594771849
 20
163.3459884145
 30
0.0
  0
VERTEX
  5
1C9
  8
CORPO_ATOM
  6
CONTINUOUS
 62
     7
 10
40.9617785167
 20
163.3452403889
 30
0.0
  0
VERTEX
  5
1CA
  8
CORPO_ATOM
  6
CONTINUOUS
 62
     7
 10
40.9640701043
 20
163.3445161981
 30
0.0
  0
VERTEX
  5
1CB
  8
CORPO_ATOM
  6
CONTINUOUS
 62
     7
 10
40.9663517175
 20
163.343816054
 30
0.0
  0
VERTEX
  5
1CC
  8
CORPO_ATOM
  6
CONTINUOUS
 62
     7
 10
40.9686231259
 20
163.3431401682
 30
0.0
  0
VERTEX
  5
1CD
  8
CORPO_ATOM
  6
CONTINUOUS
 62
     7
 10
40.9708840994
 20
163.3424887527
 30
0.0
  0
VERTEX
  5
1CE
  8
CORPO_ATOM
  6
CONTINUOUS
 62
     7
 10
40.9731344074
 20
163.3418620192
 30
0.0
  0
VERTEX
  5
1CF
  8
CORPO_ATOM
  6
CONTINUOUS
 62
     7
 10
40.9753738199
 20
163.3412601795
 30
0.0
  0
VERTEX
  5
1D0
  8
CORPO_ATOM
  6
CONTINUOUS
 62
     7
 10
40.9776021065
 20
163.3406834455
 30
0.0
  0
VERTEX
  5
1D1
  8
CORPO_ATOM
  6
CONTINUOUS
 62
     7
 10
40.9798190369
 20
163.340132029
 30
0.0
  0
VERTEX
  5
1D2
  8
CORPO_ATOM
  6
CONTINUOUS
 62
     7
 10
40.9820258484
 20
163.3396058083
 30
0.0
  0
VERTEX
  5
1D3
  8
CORPO_ATOM
  6
CONTINUOUS
 62
     7
 10
40.9842276996
 20
163.3391040709
 30
0.0
  0
VERTEX
  5
1D4
  8
CORPO_ATOM
  6
CONTINUOUS
 62
     7
 10
40.9864202318
 20
163.3386281983
 30
0.0
  0
VERTEX
  5
1D5
  8
CORPO_ATOM
  6
CONTINUOUS
 62
     7
 10
40.988602977
 20
163.3381785127
 30
0.0
  0
VERTEX
  5
1D6
  8
CORPO_ATOM
  6
CONTINUOUS
 62
     7
 10
40.990775467
 20
163.3377553362
 30
0.0
  0
VERTEX
  5
1D7
  8
CORPO_ATOM
  6
CONTINUOUS
 62
     7
 10
40.9929372338
 20
163.337358991
 30
0.0
  0
VERTEX
  5
1D8
  8
CORPO_ATOM
  6
CONTINUOUS
 62
     7
 10
40.9950878095
 20
163.3369897995
 30
0.0
  0
VERTEX
  5
1D9
  8
CORPO_ATOM
  6
CONTINUOUS
 62
     7
 10
40.9972267259
 20
163.3366480837
 30
0.0
  0
VERTEX
  5
1DA
  8
CORPO_ATOM
  6
CONTINUOUS
 62
     7
 10
40.9993535152
 20
163.3363341658
 30
0.0
  0
VERTEX
  5
1DB
  8
CORPO_ATOM
  6
CONTINUOUS
 62
     7
 10
41.0014677091
 20
163.3360483682
 30
0.0
  0
VERTEX
  5
1DC
  8
CORPO_ATOM
  6
CONTINUOUS
 62
     7
 10
41.0035688398
 20
163.3357910129
 30
0.0
  0
VERTEX
  5
1DD
  8
CORPO_ATOM
  6
CONTINUOUS
 62
     7
 10
41.0056564392
 20
163.3355624222
 30
0.0
  0
VERTEX
  5
1DE
  8
CORPO_ATOM
  6
CONTINUOUS
 62
     7
 10
41.0077300391
 20
163.3353629183
 30
0.0
  0
VERTEX
  5
1DF
  8
CORPO_ATOM
  6
CONTINUOUS
 62
     7
 10
41.0097891718
 20
163.3351928233
 30
0.0
  0
VERTEX
  5
1E0
  8
CORPO_ATOM
  6
CONTINUOUS
 62
     7
 10
41.0118333689
 20
163.3350524595
 30
0.0
  0
VERTEX
  5
1E1
  8
CORPO_ATOM
  6
CONTINUOUS
 62
     7
 10
41.0138621627
 20
163.3349421491
 30
0.0
  0
VERTEX
  5
1E2
  8
CORPO_ATOM
  6
CONTINUOUS
 62
     7
 10
41.015875085
 20
163.3348622143
 30
0.0
  0
VERTEX
  5
1E3
  8
CORPO_ATOM
  6
CONTINUOUS
 62
     7
 10
41.0178716677
 20
163.3348129773
 30
0.0
  0
VERTEX
  5
1E4
  8
CORPO_ATOM
  6
CONTINUOUS
 62
     7
 10
41.019851443
 20
163.3347947602
 30
0.0
  0
SEQEND
  5
223
  8
CORPO_ATOM
  6
CONTINUOUS
 62
     7
  0
LINE
  5
11E
  8
CORPO_ATOM
  6
CONTINUOUS
 62
     7
 10
41.0902613158
 20
160.57534592
 30
0.0
 11
41.0902613158
 21
163.3347828122
 31
0.0
  0
LINE
  5
11F
  8
CORPO_ATOM
  6
CONTINUOUS
 62
     7
 10
43.0902657475
 20
161.0017003601
 30
0.0
 11
42.5902656575
 21
161.3564525145
 31
0.0
  0
ARC
  5
120
  8
CORPO_ATOM
  6
CONTINUOUS
 62
     7
 10
40.4799550667
 20
160.6892113073
 30
0.0
 40
0.6208373733740339
 50
299.9880188418
 51
349.4317788423
  0
LINE
  5
121
  8
CORPO_ATOM
  6
CONTINUOUS
 62
     7
 10
36.590261316
 20
154.3315878576
 30
0.0
 11
36.590261316
 21
152.2531564851
 31
0.0
  0
LINE
  5
122
  8
CORPO_ATOM
  6
CONTINUOUS
 62
     7
 10
42.0333966441
 20
174.0531564851
 30
0.0
 11
37.590261316
 21
174.0531564851
 31
0.0
  0
LINE
  5
123
  8
CORPO_ATOM
  6
CONTINUOUS
 62
     7
 10
37.590261316
 20
177.1531564851
 30
0.0
 11
38.590261316
 21
177.1531564851
 31
0.0
  0
LINE
  5
124
  8
CORPO_ATOM
  6
CONTINUOUS
 62
     7
 10
34.8902637169
 20
145.7531564851
 30
0.0
 11
35.590261316
 21
145.7531564851
 31
0.0
  0
LINE
  5
125
  8
CORPO_ATOM
  6
CONTINUOUS
 62
     7
 10
35.590261316
 20
213.7531564851
 30
0.0
 11
34.8902637169
 21
213.7531564851
 31
0.0
  0
LINE
  5
126
  8
CORPO_ATOM
  6
CONTINUOUS
 62
     7
 10
34.8902637169
 20
213.7531564851
 30
0.0
 11
34.3902619878
 21
213.253153469
 31
0.0
  0
LINE
  5
127
  8
CORPO_ATOM
  6
CONTINUOUS
 62
     7
 10
34.3902619878
 20
146.2531595011
 30
0.0
 11
34.8902637169
 21
145.7531564851
 31
0.0
  0
LINE
  5
128
  8
CORPO_ATOM
  6
CONTINUOUS
 62
     7
 10
41.090261316
 20
207.2531564851
 30
0.0
 11
36.590261316
 21
207.2531564851
 31
0.0
  0
LINE
  5
129
  8
CORPO_ATOM
  6
CONTINUOUS
 62
     7
 10
41.0195741278
 20
163.334784558
 30
0.0
 11
43.090261316
 21
163.334784558
 31
0.0
  0
LINE
  5
12A
  8
CORPO_ATOM
  6
CONTINUOUS
 62
     7
 10
36.590261316
 20
152.2531564851
 30
0.0
 11
41.090261316
 21
152.2531564851
 31
0.0
  0
LINE
  5
12B
  8
COPERTURA_ATOM
  6
CONTINUOUS
 62
     7
 10
42.090261316
 20
161.9626778902
 30
0.0
 11
42.090261316
 21
162.0754869555
 31
0.0
  0
LINE
  5
12C
  8
COPERTURA_ATOM
  6
CONTINUOUS
 62
     7
 10
42.090261316
 20
162.0754869554
 30
0.0
 11
42.090261316
 21
163.334784558
 31
0.0
  0
POLYLINE
  5
12D
  8
COPERTURA_ATOM
  6
CONTINUOUS
 62
     7
 66
     1
 10
0.0
 20
0.0
 30
0.0
  0
VERTEX
  5
1E5
  8
COPERTURA_ATOM
  6
CONTINUOUS
 62
     7
 10
42.590261316
 20
161.8162312808
 30
0.0
  0
VERTEX
  5
1E6
  8
COPERTURA_ATOM
  6
CONTINUOUS
 62
     7
 10
42.3989195998
 20
161.9246176565
 30
0.0
  0
VERTEX
  5
1E7
  8
COPERTURA_ATOM
  6
CONTINUOUS
 62
     7
 10
42.3116823034
 20
161.9532560285
 30
0.0
  0
VERTEX
  5
1E8
  8
COPERTURA_ATOM
  6
CONTINUOUS
 62
     7
 10
42.2367079254
 20
161.9626778902
 30
0.0
  0
SEQEND
  5
224
  8
COPERTURA_ATOM
  6
CONTINUOUS
 62
     7
  0
LINE
  5
12E
  8
COPERTURA_ATOM
  6
CONTINUOUS
 62
     7
 10
43.090261316
 20
161.4474823647
 30
0.0
 11
43.090261316
 21
161.0017035044
 31
0.0
  0
LINE
  5
12F
  8
COPERTURA_ATOM
  6
CONTINUOUS
 62
     7
 10
43.090261316
 20
152.5689354663
 30
0.0
 11
43.090261316
 21
154.5303989039
 31
0.0
  0
LINE
  5
130
  8
COPERTURA_ATOM
  6
CONTINUOUS
 62
     7
 10
43.090261316
 20
206.9373767703
 30
0.0
 11
43.090261316
 21
204.9759140663
 31
0.0
  0
LINE
  5
131
  8
COPERTURA_ATOM
  6
CONTINUOUS
 62
     7
 10
43.090261316
 20
163.334784558
 30
0.0
 11
43.090261316
 21
162.2169083116
 31
0.0
  0
LINE
  5
132
  8
COPERTURA_ATOM
  6
CONTINUOUS
 62
     7
 10
43.090261316
 20
162.2169083117
 30
0.0
 11
43.090261316
 21
161.4474823647
 31
0.0
  0
ARC
  5
133
  8
COPERTURA_ATOM
  6
CONTINUOUS
 62
     7
 10
42.790261316
 20
152.5531564851
 30
0.0
 40
0.2999999999999947
 50
270.0
 51
339.4514797372
  0
ARC
  5
134
  8
COPERTURA_ATOM
  6
CONTINUOUS
 62
     7
 10
42.7425231718
 20
152.5617091376
 30
0.0
 40
0.3478128098660204
 50
340.8926413406
 51
1.1872251471
  0
LINE
  5
135
  8
COPERTURA_ATOM
  6
CONTINUOUS
 62
     7
 10
41.090261316
 20
154.4806838768
 30
0.0
 11
41.090261316
 21
152.2531564851
 31
0.0
  0
LINE
  5
136
  8
COPERTURA_ATOM
  6
CONTINUOUS
 62
     7
 10
41.090261316
 20
207.2531564851
 30
0.0
 11
41.090261316
 21
205.0256290933
 31
0.0
  0
LINE
  5
137
  8
COPERTURA_ATOM
  6
CONTINUOUS
 62
     7
 10
41.090261316
 20
152.2531564851
 30
0.0
 11
42.7902612548
 21
152.2531565024
 31
0.0
  0
ARC
  5
138
  8
COPERTURA_ATOM
  6
CONTINUOUS
 62
     7
 10
42.7426716884
 20
206.9446226108
 30
0.0
 40
0.3476643451368869
 50
358.8121089878
 51
19.12553721
  0
ARC
  5
139
  8
COPERTURA_ATOM
  6
CONTINUOUS
 62
     7
 10
42.790261316
 20
206.9531564851
 30
0.0
 40
0.3000000000000005
 50
20.5636958167
 51
90.0
  0
LINE
  5
13A
  8
COPERTURA_ATOM
  6
CONTINUOUS
 62
     7
 10
41.090261316
 20
207.2531564851
 30
0.0
 11
42.7902612945
 21
207.253156479
 31
0.0
  0
LINE
  5
13B
  8
COPERTURA_ATOM
  6
CONTINUOUS
 62
     7
 10
42.2367079254
 20
161.9626778902
 30
0.0
 11
41.090261316
 21
161.9626778902
 31
0.0
  0
POLYLINE
  5
13C
  8
VITE_ATOM
  6
CONTINUOUS
 62
     7
 66
     1
 10
0.0
 20
0.0
 30
0.0
  0
VERTEX
  5
1E9
  8
VITE_ATOM
  6
CONTINUOUS
 62
     7
 10
41.0910178374
 20
205.2032547168
 30
0.0
  0
VERTEX
  5
1EA
  8
VITE_ATOM
  6
CONTINUOUS
 62
     7
 10
41.0912404797
 20
205.2020565659
 30
0.0
  0
VERTEX
  5
1EB
  8
VITE_ATOM
  6
CONTINUOUS
 62
     7
 10
41.091463122
 20
205.2008586939
 30
0.0
  0
VERTEX
  5
1EC
  8
VITE_ATOM
  6
CONTINUOUS
 62
     7
 10
41.0916857643
 20
205.1996611042
 30
0.0
  0
VERTEX
  5
1ED
  8
VITE_ATOM
  6
CONTINUOUS
 62
     7
 10
41.0919084066
 20
205.1984637997
 30
0.0
  0
VERTEX
  5
1EE
  8
VITE_ATOM
  6
CONTINUOUS
 62
     7
 10
41.0921310489
 20
205.1972667838
 30
0.0
  0
VERTEX
  5
1EF
  8
VITE_ATOM
  6
CONTINUOUS
 62
     7
 10
41.0923536911
 20
205.1960700595
 30
0.0
  0
VERTEX
  5
1F0
  8
VITE_ATOM
  6
CONTINUOUS
 62
     7
 10
41.0925763333
 20
205.1948736301
 30
0.0
  0
VERTEX
  5
1F1
  8
VITE_ATOM
  6
CONTINUOUS
 62
     7
 10
41.0927989755
 20
205.1936774987
 30
0.0
  0
VERTEX
  5
1F2
  8
VITE_ATOM
  6
CONTINUOUS
 62
     7
 10
41.0930216177
 20
205.1924816685
 30
0.0
  0
VERTEX
  5
1F3
  8
VITE_ATOM
  6
CONTINUOUS
 62
     7
 10
41.0932442599
 20
205.1912861426
 30
0.0
  0
VERTEX
  5
1F4
  8
VITE_ATOM
  6
CONTINUOUS
 62
     7
 10
41.0934669021
 20
205.1900909243
 30
0.0
  0
VERTEX
  5
1F5
  8
VITE_ATOM
  6
CONTINUOUS
 62
     7
 10
41.0936895442
 20
205.1888960166
 30
0.0
  0
VERTEX
  5
1F6
  8
VITE_ATOM
  6
CONTINUOUS
 62
     7
 10
41.0939121863
 20
205.1877014229
 30
0.0
  0
VERTEX
  5
1F7
  8
VITE_ATOM
  6
CONTINUOUS
 62
     7
 10
41.0941348284
 20
205.1865071462
 30
0.0
  0
VERTEX
  5
1F8
  8
VITE_ATOM
  6
CONTINUOUS
 62
     7
 10
41.0943574705
 20
205.1853131897
 30
0.0
  0
VERTEX
  5
1F9
  8
VITE_ATOM
  6
CONTINUOUS
 62
     7
 10
41.0945801126
 20
205.1841195566
 30
0.0
  0
VERTEX
  5
1FA
  8
VITE_ATOM
  6
CONTINUOUS
 62
     7
 10
41.0948027547
 20
205.1829262501
 30
0.0
  0
VERTEX
  5
1FB
  8
VITE_ATOM
  6
CONTINUOUS
 62
     7
 10
41.0950253967
 20
205.1817332733
 30
0.0
  0
VERTEX
  5
1FC
  8
VITE_ATOM
  6
CONTINUOUS
 62
     7
 10
41.0952480387
 20
205.1805406295
 30
0.0
  0
VERTEX
  5
1FD
  8
VITE_ATOM
  6
CONTINUOUS
 62
     7
 10
41.0954706807
 20
205.1793483217
 30
0.0
  0
VERTEX
  5
1FE
  8
VITE_ATOM
  6
CONTINUOUS
 62
     7
 10
41.0956933227
 20
205.1781563532
 30
0.0
  0
VERTEX
  5
1FF
  8
VITE_ATOM
  6
CONTINUOUS
 62
     7
 10
41.0959159647
 20
205.1769647271
 30
0.0
  0
VERTEX
  5
200
  8
VITE_ATOM
  6
CONTINUOUS
 62
     7
 10
41.0961386066
 20
205.1757734466
 30
0.0
  0
VERTEX
  5
201
  8
VITE_ATOM
  6
CONTINUOUS
 62
     7
 10
41.0963612486
 20
205.1745825149
 30
0.0
  0
SEQEND
  5
225
  8
VITE_ATOM
  6
CONTINUOUS
 62
     7
  0
LINE
  5
13D
  8
VITE_ATOM
  6
CONTINUOUS
 62
     7
 10
43.090261316
 20
207.0032547168
 30
0.0
 11
43.090261316
 21
206.9375155387
 31
0.0
  0
LINE
  5
13E
  8
VITE_ATOM
  6
CONTINUOUS
 62
     7
 10
43.090261316
 20
207.0032547168
 30
0.0
 11
43.0852416493
 21
207.0032547168
 31
0.0
  0
POLYLINE
  5
13F
  8
VITE_ATOM
  6
CONTINUOUS
 62
     7
 66
     1
 10
0.0
 20
0.0
 30
0.0
  0
VERTEX
  5
202
  8
VITE_ATOM
  6
CONTINUOUS
 62
     7
 10
41.0857441277
 20
154.3313650016
 30
0.0
  0
VERTEX
  5
203
  8
VITE_ATOM
  6
CONTINUOUS
 62
     7
 10
41.0859638658
 20
154.3301892048
 30
0.0
  0
VERTEX
  5
204
  8
VITE_ATOM
  6
CONTINUOUS
 62
     7
 10
41.0861836039
 20
154.3290130682
 30
0.0
  0
VERTEX
  5
205
  8
VITE_ATOM
  6
CONTINUOUS
 62
     7
 10
41.0864033419
 20
154.3278365949
 30
0.0
  0
VERTEX
  5
206
  8
VITE_ATOM
  6
CONTINUOUS
 62
     7
 10
41.08662308
 20
154.3266597878
 30
0.0
  0
VERTEX
  5
207
  8
VITE_ATOM
  6
CONTINUOUS
 62
     7
 10
41.086842818
 20
154.3254826499
 30
0.0
  0
VERTEX
  5
208
  8
VITE_ATOM
  6
CONTINUOUS
 62
     7
 10
41.087062556
 20
154.3243051845
 30
0.0
  0
VERTEX
  5
209
  8
VITE_ATOM
  6
CONTINUOUS
 62
     7
 10
41.087282294
 20
154.3231273945
 30
0.0
  0
VERTEX
  5
20A
  8
VITE_ATOM
  6
CONTINUOUS
 62
     7
 10
41.087502032
 20
154.3219492829
 30
0.0
  0
VERTEX
  5
20B
  8
VITE_ATOM
  6
CONTINUOUS
 62
     7
 10
41.08772177
 20
154.3207708528
 30
0.0
  0
VERTEX
  5
20C
  8
VITE_ATOM
  6
CONTINUOUS
 62
     7
 10
41.0879415079
 20
154.3195921072
 30
0.0
  0
VERTEX
  5
20D
  8
VITE_ATOM
  6
CONTINUOUS
 62
     7
 10
41.0881612458
 20
154.3184130492
 30
0.0
  0
VERTEX
  5
20E
  8
VITE_ATOM
  6
CONTINUOUS
 62
     7
 10
41.0883809837
 20
154.3172336819
 30
0.0
  0
VERTEX
  5
20F
  8
VITE_ATOM
  6
CONTINUOUS
 62
     7
 10
41.0886007216
 20
154.3160540083
 30
0.0
  0
VERTEX
  5
210
  8
VITE_ATOM
  6
CONTINUOUS
 62
     7
 10
41.0888204595
 20
154.3148740314
 30
0.0
  0
VERTEX
  5
211
  8
VITE_ATOM
  6
CONTINUOUS
 62
     7
 10
41.0890401974
 20
154.3136937543
 30
0.0
  0
VERTEX
  5
212
  8
VITE_ATOM
  6
CONTINUOUS
 62
     7
 10
41.0892599352
 20
154.31251318
 30
0.0
  0
VERTEX
  5
213
  8
VITE_ATOM
  6
CONTINUOUS
 62
     7
 10
41.0894796731
 20
154.3113323116
 30
0.0
  0
VERTEX
  5
214
  8
VITE_ATOM
  6
CONTINUOUS
 62
     7
 10
41.0896994109
 20
154.3101511521
 30
0.0
  0
VERTEX
  5
215
  8
VITE_ATOM
  6
CONTINUOUS
 62
     7
 10
41.0899191487
 20
154.3089697046
 30
0.0
  0
VERTEX
  5
216
  8
VITE_ATOM
  6
CONTINUOUS
 62
     7
 10
41.0901388864
 20
154.3077879722
 30
0.0
  0
VERTEX
  5
217
  8
VITE_ATOM
  6
CONTINUOUS
 62
     7
 10
41.0903586242
 20
154.3066059578
 30
0.0
  0
VERTEX
  5
218
  8
VITE_ATOM
  6
CONTINUOUS
 62
     7
 10
41.0905783619
 20
154.3054236645
 30
0.0
  0
VERTEX
  5
219
  8
VITE_ATOM
  6
CONTINUOUS
 62
     7
 10
41.0907980997
 20
154.3042410953
 30
0.0
  0
VERTEX
  5
21A
  8
VITE_ATOM
  6
CONTINUOUS
 62
     7
 10
41.0910178374
 20
154.3030582534
 30
0.0
  0
SEQEND
  5
226
  8
VITE_ATOM
  6
CONTINUOUS
 62
     7
  0
LINE
  5
140
  8
VITE_ATOM
  6
CONTINUOUS
 62
     7
 10
43.090261316
 20
152.5689354663
 30
0.0
 11
43.090261316
 21
152.5030582534
 31
0.0
  0
LINE
  5
141
  8
VITE_ATOM
  6
CONTINUOUS
 62
     7
 10
43.0852416493
 20
152.5030582534
 30
0.0
 11
43.090261316
 21
152.5030582534
 31
0.0
  0
LINE
  5
142
  8
3175116B
  6
CONTINUOUS
 62
     7
 10
43.7350803915
 20
175.7531564851
 30
0.0
 11
43.890261316
 21
175.7531564851
 31
0.0
  0
LINE
  5
143
  8
3175116B
  6
CONTINUOUS
 62
     7
 10
43.7350803915
 20
175.7531564851
 30
0.0
 11
40.8850803915
 21
175.7531564851
 31
0.0
  0
LINE
  5
144
  8
3175116B
  6
CONTINUOUS
 62
     7
 10
40.8850803915
 20
175.7531564851
 30
0.0
 11
40.040261316
 21
175.7531564851
 31
0.0
  0
LINE
  5
145
  8
3175116B
  6
CONTINUOUS
 62
     7
 10
40.040261316
 20
175.7531564851
 30
0.0
 11
38.590261316
 21
175.7531564851
 31
0.0
  0
LINE
  5
146
  8
3175116B
  6
CONTINUOUS
 62
     7
 10
37.590261316
 20
175.7531564851
 30
0.0
 11
35.590261316
 21
175.7531564851
 31
0.0
  0
LINE
  5
147
  8
3175116B
  6
CONTINUOUS
 62
     7
 10
37.590261316
 20
183.7531564851
 30
0.0
 11
35.590261316
 21
183.7531564851
 31
0.0
  0
LINE
  5
148
  8
3175116B
  6
CONTINUOUS
 62
     7
 10
40.040261316
 20
183.7531564851
 30
0.0
 11
38.590261316
 21
183.7531564851
 31
0.0
  0
LINE
  5
149
  8
3175116B
  6
CONTINUOUS
 62
     7
 10
40.8850803915
 20
183.7531564851
 30
0.0
 11
40.040261316
 21
183.7531564851
 31
0.0
  0
LINE
  5
14A
  8
3175116B
  6
CONTINUOUS
 62
     7
 10
43.7350803915
 20
183.7531564851
 30
0.0
 11
40.8850803915
 21
183.7531564851
 31
0.0
  0
LINE
  5
14B
  8
3175116B
  6
CONTINUOUS
 62
     7
 10
43.7350803915
 20
183.7531564851
 30
0.0
 11
43.890261316
 21
183.7531564851
 31
0.0
  0
LINE
  5
14C
  8
3175116B
  6
CONTINUOUS
 62
     7
 10
38.590261316
 20
175.7531564851
 30
0.0
 11
38.590261316
 21
183.7531564851
 31
0.0
  0
LINE
  5
14D
  8
3175116B
  6
CONTINUOUS
 62
     7
 10
37.590261316
 20
178.7031564851
 30
0.0
 11
38.590261316
 21
178.7031564851
 31
0.0
  0
LINE
  5
14E
  8
3175116B
  6
CONTINUOUS
 62
     7
 10
37.590261316
 20
180.8031564851
 30
0.0
 11
37.590261316
 21
180.7531564851
 31
0.0
  0
LINE
  5
14F
  8
3175116B
  6
CONTINUOUS
 62
     7
 10
38.590261316
 20
180.8031564851
 30
0.0
 11
37.590261316
 21
180.8031564851
 31
0.0
  0
LINE
  5
150
  8
3175116B
  6
CONTINUOUS
 62
     7
 10
37.590261316
 20
178.7531564851
 30
0.0
 11
37.590261316
 21
178.7031564851
 31
0.0
  0
LINE
  5
151
  8
3175116B
  6
CONTINUOUS
 62
     7
 10
37.6243435777
 20
180.7531564851
 30
0.0
 11
37.590261316
 21
180.7531564851
 31
0.0
  0
LINE
  5
152
  8
3175116B
  6
CONTINUOUS
 62
     7
 10
37.6243435777
 20
178.7531564851
 30
0.0
 11
37.6243435777
 21
180.7531564851
 31
0.0
  0
LINE
  5
153
  8
3175116B
  6
CONTINUOUS
 62
     7
 10
37.6243435777
 20
178.7531564851
 30
0.0
 11
37.590261316
 21
178.7531564851
 31
0.0
  0
LINE
  5
154
  8
3175116B
  6
CONTINUOUS
 62
     7
 10
38.590261316
 20
180.7531564851
 30
0.0
 11
37.6243435777
 21
180.7531564851
 31
0.0
  0
LINE
  5
155
  8
3175116B
  6
CONTINUOUS
 62
     7
 10
38.590261316
 20
178.7531564851
 30
0.0
 11
37.6243435777
 21
178.7531564851
 31
0.0
  0
LINE
  5
156
  8
3175116B
  6
CONTINUOUS
 62
     7
 10
43.890261316
 20
175.7531564851
 30
0.0
 11
43.890261316
 21
183.7531564851
 31
0.0
  0
ENDBLK
  5
158
  8
0
  0
ENDSEC
  0
SECTION
  2
ENTITIES
  0
INSERT
  5
60
  8
DEFAULT
  2
SE
 10
0.0
 20
0.0
 30
0.0
  0
INSERT
  5
6A
  8
DEFAULT
  2
SE1
 10
0.0
 20
0.0
 30
0.0
  0
INSERT
  5
C8
  8
DEFAULT
  2
GDIMGGROUP
 10
0.0
 20
0.0
 30
0.0
  0
INSERT
  5
D5
  8
DEFAULT
  2
GDIMGGROUP1
 10
0.0
 20
0.0
 30
0.0
  0
INSERT
  5
E0
  8
DEFAULT
  2
GDIMGGROUP2
 10
0.0
 20
0.0
 30
0.0
  0
INSERT
  5
EA
  8
DEFAULT
  2
GDIMGGROUP3
 10
0.0
 20
0.0
 30
0.0
  0
INSERT
  5
F4
  8
DEFAULT
  2
SE2
 10
0.0
 20
0.0
 30
0.0
  0
ENDSEC
  0
EOF
