  0
SECTION
  2
HEADER
  9
$ACADVER
  1
AC1009
  9
$DWGCODEPAGE
  3
ansi_1252
  9
$INSBASE
 10
0.0
 20
0.0
 30
0.0
  9
$EXTMIN
 10
0.0
 20
0.0
 30
0.0
  9
$EXTMAX
 10
210.0
 20
297.0
 30
0.0
  9
$LIMMIN
 10
0.0
 20
0.0
  9
$LIMMAX
 10
210.0
 20
297.0
  9
$ORTHOMODE
 70
     0
  9
$REGENMODE
 70
     1
  9
$FILLMODE
 70
     1
  9
$QTEXTMODE
 70
     0
  9
$MIRRTEXT
 70
     1
  9
$DRAGMODE
 70
     2
  9
$LTSCALE
 40
1.0
  9
$OSMODE
 70
    37
  9
$ATTMODE
 70
     1
  9
$TEXTSIZE
 40
2.5
  9
$TRACEWID
 40
1.0
  9
$TEXTSTYLE
  7
STANDARD
  9
$CLAYER
  8
0
  9
$CELTYPE
  6
BYLAYER
  9
$CECOLOR
 62
   256
  9
$DIMSCALE
 40
1.0
  9
$DIMASZ
 40
2.5
  9
$DIMEXO
 40
0.625
  9
$DIMDLI
 40
3.75
  9
$DIMRND
 40
0.0
  9
$DIMDLE
 40
0.0
  9
$DIMEXE
 40
1.25
  9
$DIMTP
 40
0.0
  9
$DIMTM
 40
0.0
  9
$DIMTXT
 40
2.5
  9
$DIMCEN
 40
2.5
  9
$DIMTSZ
 40
0.0
  9
$DIMTOL
 70
     0
  9
$DIMLIM
 70
     0
  9
$DIMTIH
 70
     0
  9
$DIMTOH
 70
     0
  9
$DIMSE1
 70
     0
  9
$DIMSE2
 70
     0
  9
$DIMTAD
 70
     1
  9
$DIMZIN
 70
     8
  9
$DIMBLK
  1

  9
$DIMASO
 70
     1
  9
$DIMSHO
 70
     1
  9
$DIMPOST
  1

  9
$DIMAPOST
  1

  9
$DIMALT
 70
     0
  9
$DIMALTD
 70
     3
  9
$DIMALTF
 40
0.0393700787
  9
$DIMLFAC
 40
1.0
  9
$DIMTOFL
 70
     1
  9
$DIMTVP
 40
0.0
  9
$DIMTIX
 70
     0
  9
$DIMSOXD
 70
     0
  9
$DIMSAH
 70
     0
  9
$DIMBLK1
  1

  9
$DIMBLK2
  1

  9
$DIMSTYLE
  2
ISO-25
  9
$DIMCLRD
 70
     0
  9
$DIMCLRE
 70
     0
  9
$DIMCLRT
 70
     0
  9
$DIMTFAC
 40
1.0
  9
$DIMGAP
 40
0.625
  9
$LUNITS
 70
     2
  9
$LUPREC
 70
     4
  9
$SKETCHINC
 40
1.0
  9
$FILLETRAD
 40
0.0
  9
$AUNITS
 70
     0
  9
$AUPREC
 70
     0
  9
$MENU
  1
.
  9
$ELEVATION
 40
0.0
  9
$PELEVATION
 40
0.0
  9
$THICKNESS
 40
0.0
  9
$LIMCHECK
 70
     0
  9
$CHAMFERA
 40
0.0
  9
$CHAMFERB
 40
0.0
  9
$SKPOLY
 70
     0
  9
$TDCREATE
 40
2460458.659437755
  9
$TDUPDATE
 40
2460458.659445857
  9
$TDINDWG
 40
0.0000000116
  9
$TDUSRTIMER
 40
0.0000000116
  9
$USRTIMER
 70
     1
  9
$ANGBASE
 50
0.0
  9
$ANGDIR
 70
     0
  9
$PDMODE
 70
     0
  9
$PDSIZE
 40
0.0
  9
$PLINEWID
 40
0.0
  9
$COORDS
 70
     1
  9
$SPLFRAME
 70
     0
  9
$SPLINETYPE
 70
     6
  9
$SPLINESEGS
 70
     8
  9
$ATTDIA
 70
     0
  9
$ATTREQ
 70
     1
  9
$HANDLING
 70
     1
  9
$HANDSEED
  5
138
  9
$SURFTAB1
 70
     6
  9
$SURFTAB2
 70
     6
  9
$SURFTYPE
 70
     6
  9
$SURFU
 70
     6
  9
$SURFV
 70
     6
  9
$UCSNAME
  2

  9
$UCSORG
 10
0.0
 20
0.0
 30
0.0
  9
$UCSXDIR
 10
1.0
 20
0.0
 30
0.0
  9
$UCSYDIR
 10
0.0
 20
1.0
 30
0.0
  9
$PUCSNAME
  2

  9
$PUCSORG
 10
0.0
 20
0.0
 30
0.0
  9
$PUCSXDIR
 10
1.0
 20
0.0
 30
0.0
  9
$PUCSYDIR
 10
0.0
 20
1.0
 30
0.0
  9
$USERI1
 70
     0
  9
$USERI2
 70
     0
  9
$USERI3
 70
     0
  9
$USERI4
 70
     0
  9
$USERI5
 70
     0
  9
$USERR1
 40
0.0
  9
$USERR2
 40
0.0
  9
$USERR3
 40
0.0
  9
$USERR4
 40
0.0
  9
$USERR5
 40
0.0
  9
$WORLDVIEW
 70
     1
  9
$SHADEDGE
 70
     3
  9
$SHADEDIF
 70
    70
  9
$TILEMODE
 70
     1
  9
$MAXACTVP
 70
    64
  9
$PLIMCHECK
 70
     0
  9
$PEXTMIN
 10
0.0
 20
0.0
 30
0.0
  9
$PEXTMAX
 10
210.0
 20
297.0
 30
0.0
  9
$PLIMMIN
 10
0.0
 20
0.0
  9
$PLIMMAX
 10
210.0
 20
297.0
  9
$UNITMODE
 70
     0
  9
$VISRETAIN
 70
     1
  9
$PLINEGEN
 70
     0
  9
$PSLTSCALE
 70
     1
  0
ENDSEC
  0
SECTION
  2
TABLES
  0
TABLE
  2
VPORT
 70
     1
  0
VPORT
  2
*ACTIVE
 70
     0
 10
0.0
 20
0.0
 11
1.0
 21
1.0
 12
344.1869158879
 22
148.5
 13
0.0
 23
0.0
 14
10.0
 24
10.0
 15
10.0
 25
10.0
 16
0.0
 26
0.0
 36
1.0
 17
0.0
 27
0.0
 37
0.0
 40
297.0
 41
1.9729729729
 42
50.0
 43
0.0
 44
0.0
 50
0.0
 51
0.0
 71
     0
 72
   100
 73
     1
 74
     3
 75
     0
 76
     0
 77
     0
 78
     0
  0
ENDTAB
  0
TABLE
  2
LTYPE
 70
     1
  0
LTYPE
  2
CONTINUOUS
 70
     0
  3
Solid line
 72
    65
 73
     0
 40
0.0
  0
ENDTAB
  0
TABLE
  2
LAYER
 70
     5
  0
LAYER
  2
0
 70
     0
 62
     7
  6
CONTINUOUS
  0
LAYER
  2
DEFAULT
 70
     0
 62
     7
  6
CONTINUOUS
  0
LAYER
  2
3066703
 70
     0
 62
     7
  6
CONTINUOUS
  0
LAYER
  2
3066001
 70
     0
 62
     7
  6
CONTINUOUS
  0
LAYER
  2
3065703
 70
     0
 62
     7
  6
CONTINUOUS
  0
ENDTAB
  0
TABLE
  2
STYLE
 70
     2
  0
STYLE
  2
STANDARD
 70
     0
 40
0.0
 41
1.0
 50
0.0
 71
     0
 42
2.5
  3
txt
  4

  0
STYLE
  2
SEACAD_ARIAL
 70
     0
 40
0.0
 41
1.0
 50
0.0
 71
     0
 42
2.5
  3
arial.ttf
  4

  0
ENDTAB
  0
TABLE
  2
VIEW
 70
     0
  0
ENDTAB
  0
TABLE
  2
UCS
 70
     0
  0
ENDTAB
  0
TABLE
  2
APPID
 70
     1
  0
APPID
  2
ACAD
 70
     0
  0
ENDTAB
  0
TABLE
  2
DIMSTYLE
 70
     1
  0
DIMSTYLE
  2
ISO-25
 70
     0
  3

  4

  5

  6

  7

 40
1.0
 41
2.5
 42
0.625
 43
3.75
 44
1.25
 45
0.0
 46
0.0
 47
0.0
 48
0.0
140
2.5
141
2.5
142
0.0
143
0.0393700787
144
1.0
145
0.0
146
1.0
147
0.625
 71
     0
 72
     0
 73
     0
 74
     0
 75
     0
 76
     0
 77
     1
 78
     8
170
     0
171
     3
172
     1
173
     0
174
     0
175
     0
176
     0
177
     0
178
     0
  0
ENDTAB
  0
ENDSEC
  0
SECTION
  2
BLOCKS
  0
BLOCK
  8
0
  2
$MODEL_SPACE
 70
     0
 10
0.0
 20
0.0
 30
0.0
  3
$MODEL_SPACE
  1

  0
ENDBLK
  5
21
  8
0
  0
BLOCK
 67
     1
  8
0
  2
$PAPER_SPACE
 70
     0
 10
0.0
 20
0.0
 30
0.0
  3
$PAPER_SPACE
  1

  0
ENDBLK
  5
1D
 67
     1
  8
0
  0
BLOCK
  8
0
  2
SE
 70
     0
 10
0.0
 20
0.0
 30
0.0
  3
SE
  1

  0
LINE
  5
62
  8
3066703
  6
CONTINUOUS
 62
     7
 10
154.1541539424
 20
153.7772009981
 30
0.0
 11
66.6541539424
 21
153.7772009981
 31
0.0
  0
LINE
  5
63
  8
3066703
  6
CONTINUOUS
 62
     7
 10
154.1541539424
 20
186.2772009981
 30
0.0
 11
154.1541539424
 21
153.7772009981
 31
0.0
  0
LINE
  5
64
  8
3066703
  6
CONTINUOUS
 62
     7
 10
154.1541539424
 20
186.2772009981
 30
0.0
 11
154.1541539424
 21
186.313066468
 31
0.0
  0
LINE
  5
65
  8
3066703
  6
CONTINUOUS
 62
     7
 10
154.1541539424
 20
153.7772009981
 30
0.0
 11
154.1541539424
 21
153.7413355282
 31
0.0
  0
LINE
  5
66
  8
3066703
  6
CONTINUOUS
 62
     7
 10
66.6541539424
 20
186.2772009981
 30
0.0
 11
154.1541539424
 21
186.2772009981
 31
0.0
  0
ARC
  5
67
  8
3066703
  6
CONTINUOUS
 62
     7
 10
66.6541539424
 20
180.7772009981
 30
0.0
 40
5.499999999999998
 50
90.0
 51
180.0
  0
LINE
  5
68
  8
3066703
  6
CONTINUOUS
 62
     7
 10
61.1541539424
 20
159.2772009981
 30
0.0
 11
61.1541539424
 21
180.7772009981
 31
0.0
  0
ARC
  5
69
  8
3066703
  6
CONTINUOUS
 62
     7
 10
66.6541539424
 20
159.2772009981
 30
0.0
 40
5.500000000000005
 50
180.0
 51
270.0
  0
LINE
  5
6A
  8
3066703
  6
CONTINUOUS
 62
     7
 10
132.3541539424
 20
182.3335666591
 30
0.0
 11
66.6541539424
 21
182.3335666591
 31
0.0
  0
ARC
  5
6B
  8
3066703
  6
CONTINUOUS
 62
     7
 10
66.6541539424
 20
180.7772009981
 30
0.0
 40
1.556365661046206
 50
90.0
 51
180.0
  0
LINE
  5
6C
  8
3066703
  6
CONTINUOUS
 62
     7
 10
65.0977882813
 20
180.7772009981
 30
0.0
 11
65.0977882813
 21
159.2772009981
 31
0.0
  0
ARC
  5
6D
  8
3066703
  6
CONTINUOUS
 62
     7
 10
66.6541539424
 20
159.2772009981
 30
0.0
 40
1.556365661046208
 50
180.0
 51
270.0
  0
LINE
  5
6E
  8
3066703
  6
CONTINUOUS
 62
     7
 10
66.6541539424
 20
157.720835337
 30
0.0
 11
132.3541539424
 21
157.720835337
 31
0.0
  0
LINE
  5
6F
  8
3066703
  6
CONTINUOUS
 62
     7
 10
136.6041539424
 20
157.6772009981
 30
0.0
 11
66.6541539424
 21
157.6772009981
 31
0.0
  0
ARC
  5
70
  8
3066703
  6
CONTINUOUS
 62
     7
 10
66.6541539424
 20
159.2772009981
 30
0.0
 40
1.600000000000003
 50
180.0
 51
270.0
  0
LINE
  5
71
  8
3066703
  6
CONTINUOUS
 62
     7
 10
65.0541539424
 20
159.2772009981
 30
0.0
 11
65.0541539424
 21
180.7772009981
 31
0.0
  0
ARC
  5
72
  8
3066703
  6
CONTINUOUS
 62
     7
 10
66.6541539424
 20
180.7772009981
 30
0.0
 40
1.600000000000004
 50
90.0
 51
180.0
  0
LINE
  5
73
  8
3066703
  6
CONTINUOUS
 62
     7
 10
66.6541539424
 20
182.3772009981
 30
0.0
 11
136.6041539424
 21
182.3772009981
 31
0.0
  0
LINE
  5
74
  8
3066703
  6
CONTINUOUS
 62
     7
 10
136.6041539424
 20
157.6772009981
 30
0.0
 11
136.6041539424
 21
182.3772009981
 31
0.0
  0
LINE
  5
75
  8
3066703
  6
CONTINUOUS
 62
     7
 10
132.3541539424
 20
157.7160975797
 30
0.0
 11
132.3541539424
 21
182.3383044165
 31
0.0
  0
LINE
  5
76
  8
3066703
  6
CONTINUOUS
 62
     7
 10
132.5006005518
 20
182.3413898302
 30
0.0
 11
136.6041539424
 21
182.3772009981
 31
0.0
  0
LINE
  5
77
  8
3066703
  6
CONTINUOUS
 62
     7
 10
132.5006005518
 20
157.713012166
 30
0.0
 11
136.6041539424
 21
157.6772009981
 31
0.0
  0
POLYLINE
  5
78
  8
3066703
  6
CONTINUOUS
 62
     7
 66
     1
 10
0.0
 20
0.0
 30
0.0
  0
VERTEX
  5
112
  8
3066703
  6
CONTINUOUS
 62
     7
 10
132.5006005518
 20
182.3413898302
 30
0.0
  0
VERTEX
  5
113
  8
3066703
  6
CONTINUOUS
 62
     7
 10
132.3922141761
 20
182.3399742303
 30
0.0
  0
VERTEX
  5
114
  8
3066703
  6
CONTINUOUS
 62
     7
 10
132.3541539424
 20
182.3383044165
 30
0.0
  0
SEQEND
  5
130
  8
3066703
  6
CONTINUOUS
 62
     7
  0
POLYLINE
  5
79
  8
3066703
  6
CONTINUOUS
 62
     7
 66
     1
 10
0.0
 20
0.0
 30
0.0
  0
VERTEX
  5
115
  8
3066703
  6
CONTINUOUS
 62
     7
 10
132.3541539424
 20
157.7160975797
 30
0.0
  0
VERTEX
  5
116
  8
3066703
  6
CONTINUOUS
 62
     7
 10
132.3922141761
 20
157.7144277658
 30
0.0
  0
VERTEX
  5
117
  8
3066703
  6
CONTINUOUS
 62
     7
 10
132.5006005518
 20
157.713012166
 30
0.0
  0
SEQEND
  5
131
  8
3066703
  6
CONTINUOUS
 62
     7
  0
LINE
  5
7A
  8
3066703
  6
CONTINUOUS
 62
     7
 10
136.6041539424
 20
154.4711095066
 30
0.0
 11
133.0041539424
 21
154.470835337
 31
0.0
  0
LINE
  5
7B
  8
3066703
  6
CONTINUOUS
 62
     7
 10
133.0041539424
 20
185.5835666591
 30
0.0
 11
136.6041539424
 21
185.5832924895
 31
0.0
  0
LINE
  5
7C
  8
3066703
  6
CONTINUOUS
 62
     7
 10
133.0041539424
 20
183.0666397977
 30
0.0
 11
133.3233927579
 21
183.0638538428
 31
0.0
  0
LINE
  5
7D
  8
3066703
  6
CONTINUOUS
 62
     7
 10
133.0041539424
 20
156.9877621984
 30
0.0
 11
133.3233927579
 21
156.9905481533
 31
0.0
  0
ARC
  5
7E
  8
3066703
  6
CONTINUOUS
 62
     7
 10
66.6541539424
 20
180.7772009981
 30
0.0
 40
2.250000000000002
 50
90.0
 51
180.0
  0
LINE
  5
7F
  8
3066703
  6
CONTINUOUS
 62
     7
 10
66.6541539424
 20
183.0272009981
 30
0.0
 11
136.6041539424
 21
183.0272009981
 31
0.0
  0
LINE
  5
80
  8
3066703
  6
CONTINUOUS
 62
     7
 10
136.6041539424
 20
183.0272009981
 30
0.0
 11
136.6041539424
 21
185.6272009981
 31
0.0
  0
LINE
  5
81
  8
3066703
  6
CONTINUOUS
 62
     7
 10
136.6041539424
 20
185.6272009981
 30
0.0
 11
66.6541539424
 21
185.6272009981
 31
0.0
  0
ARC
  5
82
  8
3066703
  6
CONTINUOUS
 62
     7
 10
66.6541539424
 20
180.7772009981
 30
0.0
 40
4.850000000000001
 50
90.0
 51
180.0
  0
LINE
  5
83
  8
3066703
  6
CONTINUOUS
 62
     7
 10
61.8041539424
 20
180.7772009981
 30
0.0
 11
61.8041539424
 21
159.2772009981
 31
0.0
  0
ARC
  5
84
  8
3066703
  6
CONTINUOUS
 62
     7
 10
66.6541539424
 20
159.2772009981
 30
0.0
 40
4.849999999999993
 50
180.0
 51
270.0
  0
LINE
  5
85
  8
3066703
  6
CONTINUOUS
 62
     7
 10
66.6541539424
 20
154.4272009981
 30
0.0
 11
136.6041539424
 21
154.4272009981
 31
0.0
  0
LINE
  5
86
  8
3066703
  6
CONTINUOUS
 62
     7
 10
136.6041539424
 20
154.4272009981
 30
0.0
 11
136.6041539424
 21
157.0272009981
 31
0.0
  0
LINE
  5
87
  8
3066703
  6
CONTINUOUS
 62
     7
 10
136.6041539424
 20
157.0272009981
 30
0.0
 11
66.6541539424
 21
157.0272009981
 31
0.0
  0
ARC
  5
88
  8
3066703
  6
CONTINUOUS
 62
     7
 10
66.6541539424
 20
159.2772009981
 30
0.0
 40
2.25
 50
180.0
 51
270.0
  0
LINE
  5
89
  8
3066703
  6
CONTINUOUS
 62
     7
 10
64.4041539424
 20
159.2772009981
 30
0.0
 11
64.4041539424
 21
180.7772009981
 31
0.0
  0
LINE
  5
8A
  8
3066703
  6
CONTINUOUS
 62
     7
 10
154.1541539424
 20
153.7413355282
 30
0.0
 11
154.1541539424
 21
153.3272009981
 31
0.0
  0
LINE
  5
8B
  8
3066703
  6
CONTINUOUS
 62
     7
 10
154.1541539424
 20
186.7272009981
 30
0.0
 11
66.6541539424
 21
186.7272009981
 31
0.0
  0
LINE
  5
8C
  8
3066703
  6
CONTINUOUS
 62
     7
 10
154.1541539424
 20
186.313066468
 30
0.0
 11
154.1541539424
 21
186.7272009981
 31
0.0
  0
LINE
  5
8D
  8
3066703
  6
CONTINUOUS
 62
     7
 10
154.1541539424
 20
186.313066468
 30
0.0
 11
66.6541539424
 21
186.313066468
 31
0.0
  0
ARC
  5
8E
  8
3066703
  6
CONTINUOUS
 62
     7
 10
66.6541539424
 20
180.7772009981
 30
0.0
 40
5.949999999999997
 50
90.0
 51
180.0
  0
ARC
  5
8F
  8
3066703
  6
CONTINUOUS
 62
     7
 10
66.6541539424
 20
180.7772009981
 30
0.0
 40
5.535865469909494
 50
90.0
 51
180.0
  0
LINE
  5
90
  8
3066703
  6
CONTINUOUS
 62
     7
 10
60.7041539424
 20
180.7772009981
 30
0.0
 11
60.7041539424
 21
159.2772009981
 31
0.0
  0
LINE
  5
91
  8
3066703
  6
CONTINUOUS
 62
     7
 10
61.1182884724
 20
180.7772009981
 30
0.0
 11
61.1182884724
 21
159.2772009981
 31
0.0
  0
ARC
  5
92
  8
3066703
  6
CONTINUOUS
 62
     7
 10
66.6541539424
 20
159.2772009981
 30
0.0
 40
5.950000000000011
 50
180.0
 51
270.0
  0
ARC
  5
93
  8
3066703
  6
CONTINUOUS
 62
     7
 10
66.6541539424
 20
159.2772009981
 30
0.0
 40
5.535865469909501
 50
180.0
 51
270.0
  0
LINE
  5
94
  8
3066703
  6
CONTINUOUS
 62
     7
 10
66.6541539424
 20
153.3272009981
 30
0.0
 11
154.1541539424
 21
153.3272009981
 31
0.0
  0
LINE
  5
95
  8
3066703
  6
CONTINUOUS
 62
     7
 10
66.6541539424
 20
153.7413355282
 30
0.0
 11
154.1541539424
 21
153.7413355282
 31
0.0
  0
CIRCLE
  5
96
  8
3066703
  6
CONTINUOUS
 62
     7
 10
139.6541539424
 20
170.0272009981
 30
0.0
 40
2.242127688001029
  0
LINE
  5
97
  8
3066703
  6
CONTINUOUS
 62
     7
 10
66.6541539424
 20
183.0655992163
 30
0.0
 11
133.0041539424
 21
183.0655992163
 31
0.0
  0
LINE
  5
98
  8
3066703
  6
CONTINUOUS
 62
     7
 10
133.0041539424
 20
185.5888027798
 30
0.0
 11
66.6541539424
 21
185.5888027798
 31
0.0
  0
ARC
  5
99
  8
3066703
  6
CONTINUOUS
 62
     7
 10
66.6541539424
 20
180.7772009981
 30
0.0
 40
4.811601781720663
 50
90.0
 51
180.0
  0
LINE
  5
9A
  8
3066703
  6
CONTINUOUS
 62
     7
 10
61.8425521606
 20
180.7772009981
 30
0.0
 11
61.8425521606
 21
178.7772009981
 31
0.0
  0
ARC
  5
9B
  8
3066703
  6
CONTINUOUS
 62
     7
 10
66.6541539424
 20
159.2772009981
 30
0.0
 40
4.811601781720659
 50
180.0
 51
270.0
  0
LINE
  5
9C
  8
3066703
  6
CONTINUOUS
 62
     7
 10
66.6541539424
 20
154.4655992163
 30
0.0
 11
133.0041539424
 21
154.4655992163
 31
0.0
  0
LINE
  5
9D
  8
3066703
  6
CONTINUOUS
 62
     7
 10
133.0041539424
 20
156.9888027798
 30
0.0
 11
66.6541539424
 21
156.9888027798
 31
0.0
  0
ARC
  5
9E
  8
3066703
  6
CONTINUOUS
 62
     7
 10
66.6541539424
 20
159.2772009981
 30
0.0
 40
2.288398218279339
 50
180.0
 51
270.0
  0
LINE
  5
9F
  8
3066703
  6
CONTINUOUS
 62
     7
 10
64.3657557241
 20
159.2772009981
 30
0.0
 11
64.3657557241
 21
180.7772009981
 31
0.0
  0
ARC
  5
A0
  8
3066703
  6
CONTINUOUS
 62
     7
 10
66.6541539424
 20
180.7772009981
 30
0.0
 40
2.288398218279336
 50
90.0
 51
180.0
  0
LINE
  5
A1
  8
3066703
  6
CONTINUOUS
 62
     7
 10
133.0041539424
 20
156.9888027798
 30
0.0
 11
133.0041539424
 21
156.9750173772
 31
0.0
  0
LINE
  5
A2
  8
3066703
  6
CONTINUOUS
 62
     7
 10
133.0041539424
 20
154.4793846189
 30
0.0
 11
133.0041539424
 21
154.4655992163
 31
0.0
  0
LINE
  5
A3
  8
3066703
  6
CONTINUOUS
 62
     7
 10
133.0041539424
 20
185.5888027798
 30
0.0
 11
133.0041539424
 21
185.5750173772
 31
0.0
  0
LINE
  5
A4
  8
3066703
  6
CONTINUOUS
 62
     7
 10
133.0041539424
 20
183.0793846189
 30
0.0
 11
133.0041539424
 21
183.0655992163
 31
0.0
  0
LINE
  5
A5
  8
3066703
  6
CONTINUOUS
 62
     7
 10
61.8277165851
 20
176.7772009981
 30
0.0
 11
61.8277165851
 21
178.2772009981
 31
0.0
  0
LINE
  5
A6
  8
3066703
  6
CONTINUOUS
 62
     7
 10
61.8563375632
 20
178.2772009981
 30
0.0
 11
61.8277165851
 21
178.2772009981
 31
0.0
  0
LINE
  5
A7
  8
3066703
  6
CONTINUOUS
 62
     7
 10
61.8563375632
 20
176.7772009981
 30
0.0
 11
61.8277165851
 21
176.7772009981
 31
0.0
  0
LINE
  5
A8
  8
3066703
  6
CONTINUOUS
 62
     7
 10
61.8277165851
 20
161.7772009981
 30
0.0
 11
61.8277165851
 21
163.2772009981
 31
0.0
  0
LINE
  5
A9
  8
3066703
  6
CONTINUOUS
 62
     7
 10
61.8277165851
 20
161.7772009981
 30
0.0
 11
61.8563375632
 21
161.7772009981
 31
0.0
  0
LINE
  5
AA
  8
3066703
  6
CONTINUOUS
 62
     7
 10
61.8277165851
 20
163.2772009981
 30
0.0
 11
61.8563375632
 21
163.2772009981
 31
0.0
  0
LINE
  5
AB
  8
3066703
  6
CONTINUOUS
 62
     7
 10
133.9733927579
 20
183.0581813787
 30
0.0
 11
136.6041539424
 21
183.0352230737
 31
0.0
  0
LINE
  5
AC
  8
3066703
  6
CONTINUOUS
 62
     7
 10
133.9733927579
 20
156.9962206174
 30
0.0
 11
136.6041539424
 21
157.0191789225
 31
0.0
  0
LINE
  5
AD
  8
3066703
  6
CONTINUOUS
 62
     7
 10
134.8541539424
 20
183.0581813787
 30
0.0
 11
134.8541539424
 21
183.0504950923
 31
0.0
  0
LINE
  5
AE
  8
3066703
  6
CONTINUOUS
 62
     7
 10
134.8541539424
 20
157.0039069038
 30
0.0
 11
134.8541539424
 21
156.9962206174
 31
0.0
  0
LINE
  5
AF
  8
3066703
  6
CONTINUOUS
 62
     7
 10
133.9733927579
 20
156.9962206174
 30
0.0
 11
134.8541539424
 21
156.9962206174
 31
0.0
  0
LINE
  5
B0
  8
3066703
  6
CONTINUOUS
 62
     7
 10
134.8541539424
 20
156.9962206174
 30
0.0
 11
134.8541539424
 21
156.9905481533
 31
0.0
  0
LINE
  5
B1
  8
3066703
  6
CONTINUOUS
 62
     7
 10
133.3233927579
 20
156.9905481533
 30
0.0
 11
134.8541539424
 21
156.9905481533
 31
0.0
  0
LINE
  5
B2
  8
3066703
  6
CONTINUOUS
 62
     7
 10
133.9733927579
 20
183.0581813787
 30
0.0
 11
134.8541539424
 21
183.0581813787
 31
0.0
  0
LINE
  5
B3
  8
3066703
  6
CONTINUOUS
 62
     7
 10
133.3233927579
 20
183.0638538428
 30
0.0
 11
134.8541539424
 21
183.0638538428
 31
0.0
  0
LINE
  5
B4
  8
3066703
  6
CONTINUOUS
 62
     7
 10
134.8541539424
 20
183.0638538428
 30
0.0
 11
134.8541539424
 21
183.0581813787
 31
0.0
  0
LINE
  5
B5
  8
3066703
  6
CONTINUOUS
 62
     7
 10
61.8425521606
 20
161.2772009981
 30
0.0
 11
61.8425521606
 21
159.2772009981
 31
0.0
  0
LINE
  5
B6
  8
3066703
  6
CONTINUOUS
 62
     7
 10
61.8563375632
 20
161.2772009981
 30
0.0
 11
61.8425521606
 21
161.2772009981
 31
0.0
  0
LINE
  5
B7
  8
3066703
  6
CONTINUOUS
 62
     7
 10
61.8563375632
 20
163.7772009981
 30
0.0
 11
61.8425521606
 21
163.7772009981
 31
0.0
  0
LINE
  5
B8
  8
3066703
  6
CONTINUOUS
 62
     7
 10
61.8477882813
 20
163.7772009981
 30
0.0
 11
61.8477882813
 21
163.2772009981
 31
0.0
  0
LINE
  5
B9
  8
3066703
  6
CONTINUOUS
 62
     7
 10
61.8477882813
 20
161.7772009981
 30
0.0
 11
61.8477882813
 21
161.2772009981
 31
0.0
  0
LINE
  5
BA
  8
3066703
  6
CONTINUOUS
 62
     7
 10
61.8425521606
 20
176.2772009981
 30
0.0
 11
61.8425521606
 21
163.7772009981
 31
0.0
  0
LINE
  5
BB
  8
3066703
  6
CONTINUOUS
 62
     7
 10
61.8563375632
 20
176.2772009981
 30
0.0
 11
61.8425521606
 21
176.2772009981
 31
0.0
  0
LINE
  5
BC
  8
3066703
  6
CONTINUOUS
 62
     7
 10
61.8477882813
 20
176.2772009981
 30
0.0
 11
61.8477882813
 21
176.7772009981
 31
0.0
  0
LINE
  5
BD
  8
3066703
  6
CONTINUOUS
 62
     7
 10
61.8477882813
 20
178.2772009981
 30
0.0
 11
61.8477882813
 21
178.7772009981
 31
0.0
  0
LINE
  5
BE
  8
3066703
  6
CONTINUOUS
 62
     7
 10
61.8563375632
 20
178.7772009981
 30
0.0
 11
61.8425521606
 21
178.7772009981
 31
0.0
  0
LINE
  5
C0
  8
3066001
  6
CONTINUOUS
 62
     7
 10
136.6041539424
 20
185.5750173772
 30
0.0
 11
66.6541539424
 21
185.5750173772
 31
0.0
  0
LINE
  5
C1
  8
3066001
  6
CONTINUOUS
 62
     7
 10
136.6041539424
 20
183.0793846189
 30
0.0
 11
66.6541539424
 21
183.0793846189
 31
0.0
  0
ARC
  5
C2
  8
3066001
  6
CONTINUOUS
 62
     7
 10
66.6541539424
 20
180.7772009981
 30
0.0
 40
4.797816379133008
 50
90.0
 51
180.0
  0
ARC
  5
C3
  8
3066001
  6
CONTINUOUS
 62
     7
 10
66.6541539424
 20
180.7772009981
 30
0.0
 40
2.302183620866958
 50
90.0
 51
180.0
  0
LINE
  5
C4
  8
3066001
  6
CONTINUOUS
 62
     7
 10
61.8563375632
 20
180.7772009981
 30
0.0
 11
61.8563375632
 21
159.2772009981
 31
0.0
  0
LINE
  5
C5
  8
3066001
  6
CONTINUOUS
 62
     7
 10
64.3519703215
 20
180.7772009981
 30
0.0
 11
64.3519703215
 21
159.2772009981
 31
0.0
  0
ARC
  5
C6
  8
3066001
  6
CONTINUOUS
 62
     7
 10
66.6541539424
 20
159.2772009981
 30
0.0
 40
4.797816379133027
 50
180.0
 51
270.0
  0
ARC
  5
C7
  8
3066001
  6
CONTINUOUS
 62
     7
 10
66.6541539424
 20
159.2772009981
 30
0.0
 40
2.302183620866968
 50
180.0
 51
270.0
  0
LINE
  5
C8
  8
3066001
  6
CONTINUOUS
 62
     7
 10
66.6541539424
 20
154.4793846189
 30
0.0
 11
136.6041539424
 21
154.4793846189
 31
0.0
  0
LINE
  5
C9
  8
3066001
  6
CONTINUOUS
 62
     7
 10
66.6541539424
 20
156.9750173772
 30
0.0
 11
136.6041539424
 21
156.9750173772
 31
0.0
  0
LINE
  5
CB
  8
3065703
  6
CONTINUOUS
 62
     7
 10
133.2733927579
 20
156.99011181
 30
0.0
 11
133.2733927579
 21
156.9750173772
 31
0.0
  0
LINE
  5
CC
  8
3065703
  6
CONTINUOUS
 62
     7
 10
133.2733927579
 20
183.0793846189
 30
0.0
 11
133.2733927579
 21
183.0642901862
 31
0.0
  0
LINE
  5
CD
  8
3065703
  6
CONTINUOUS
 62
     7
 10
133.0233927579
 20
183.0793846189
 30
0.0
 11
133.0233927579
 21
183.0664719031
 31
0.0
  0
LINE
  5
CE
  8
3065703
  6
CONTINUOUS
 62
     7
 10
133.0233927579
 20
156.987930093
 30
0.0
 11
133.0233927579
 21
156.9750173772
 31
0.0
  0
ENDBLK
  5
D0
  8
0
  0
BLOCK
  8
0
  2
SE1
 70
     0
 10
0.0
 20
0.0
 30
0.0
  3
SE1
  1

  0
LINE
  5
D3
  8
3066703
  6
CONTINUOUS
 62
     7
 10
154.1541539424
 20
128.0227979211
 30
0.0
 11
154.1541539424
 21
132.1325737043
 31
0.0
  0
LINE
  5
D4
  8
3066703
  6
CONTINUOUS
 62
     7
 10
61.1541539424
 20
128.0227979211
 30
0.0
 11
61.1182884724
 21
132.1325737043
 31
0.0
  0
LINE
  5
D5
  8
3066703
  6
CONTINUOUS
 62
     7
 10
66.6541539424
 20
128.0227979211
 30
0.0
 11
154.1541539424
 21
128.0227979211
 31
0.0
  0
LINE
  5
D6
  8
3066703
  6
CONTINUOUS
 62
     7
 10
66.6541539424
 20
128.0227979211
 30
0.0
 11
61.1541539424
 21
128.0227979211
 31
0.0
  0
LINE
  5
D7
  8
3066703
  6
CONTINUOUS
 62
     7
 10
154.1541539424
 20
132.8227979211
 30
0.0
 11
66.6541539424
 21
132.8227979211
 31
0.0
  0
LINE
  5
D8
  8
3066703
  6
CONTINUOUS
 62
     7
 10
154.1541539424
 20
132.1325737043
 30
0.0
 11
154.1541539424
 21
132.8227979211
 31
0.0
  0
LINE
  5
D9
  8
3066703
  6
CONTINUOUS
 62
     7
 10
154.1541539424
 20
133.2073711749
 30
0.0
 11
132.7591539424
 21
133.0206598385
 31
0.0
  0
LINE
  5
DA
  8
3066703
  6
CONTINUOUS
 62
     7
 10
154.1541539424
 20
132.8227979211
 30
0.0
 11
154.1541539424
 21
133.2073711749
 31
0.0
  0
LINE
  5
DB
  8
3066703
  6
CONTINUOUS
 62
     7
 10
154.1541539424
 20
132.1325737043
 30
0.0
 11
66.6541539424
 21
132.1325737043
 31
0.0
  0
LINE
  5
DC
  8
3066703
  6
CONTINUOUS
 62
     7
 10
66.6541539424
 20
132.8227979211
 30
0.0
 11
60.7041539424
 21
132.8227979211
 31
0.0
  0
LINE
  5
DD
  8
3066703
  6
CONTINUOUS
 62
     7
 10
66.6541539424
 20
133.0227979211
 30
0.0
 11
60.7041539424
 21
133.0227979211
 31
0.0
  0
LINE
  5
DE
  8
3066703
  6
CONTINUOUS
 62
     7
 10
66.6541539424
 20
132.1325737043
 30
0.0
 11
61.1182884724
 21
132.1325737043
 31
0.0
  0
LINE
  5
DF
  8
3066703
  6
CONTINUOUS
 62
     7
 10
61.1182884724
 20
132.1325737043
 30
0.0
 11
60.7041539424
 21
132.8227979211
 31
0.0
  0
LINE
  5
E0
  8
3066703
  6
CONTINUOUS
 62
     7
 10
60.7041539424
 20
132.8227979211
 30
0.0
 11
60.7041539424
 21
133.0227979211
 31
0.0
  0
LINE
  5
E1
  8
3066703
  6
CONTINUOUS
 62
     7
 10
132.7591539424
 20
133.0177979211
 30
0.0
 11
132.7541539424
 21
133.0227979211
 31
0.0
  0
LINE
  5
E2
  8
3066703
  6
CONTINUOUS
 62
     7
 10
132.7541539424
 20
133.0227979211
 30
0.0
 11
66.6541539424
 21
133.0227979211
 31
0.0
  0
LINE
  5
E3
  8
3066703
  6
CONTINUOUS
 62
     7
 10
132.7591539424
 20
133.0177979211
 30
0.0
 11
132.7591539424
 21
133.0206598385
 31
0.0
  0
LINE
  5
E4
  8
3066703
  6
CONTINUOUS
 62
     7
 10
132.7541539424
 20
133.0177979211
 30
0.0
 11
132.7541539424
 21
133.0227979211
 31
0.0
  0
LINE
  5
E5
  8
3066703
  6
CONTINUOUS
 62
     7
 10
132.7591539424
 20
133.0177979211
 30
0.0
 11
132.7541539424
 21
133.0177979211
 31
0.0
  0
ENDBLK
  5
E7
  8
0
  0
BLOCK
  8
0
  2
GDIMGGROUP
 70
     0
 10
0.0
 20
0.0
 30
0.0
  3
GDIMGGROUP
  1

  0
POLYLINE
  5
EA
  8
DEFAULT
  6
CONTINUOUS
 62
     7
 66
     1
 10
0.0
 20
0.0
 30
0.0
  0
VERTEX
  5
118
  8
DEFAULT
  6
CONTINUOUS
 62
     7
 10
50.3506600501
 20
136.5227980292
 30
0.0
  0
VERTEX
  5
119
  8
DEFAULT
  6
CONTINUOUS
 62
     7
 10
51.5173267528
 20
136.5227980292
 30
0.0
  0
VERTEX
  5
11A
  8
DEFAULT
  6
CONTINUOUS
 62
     7
 10
50.9339934014
 20
133.0227979211
 30
0.0
  0
VERTEX
  5
11B
  8
DEFAULT
  6
CONTINUOUS
 62
     7
 10
50.3506600501
 20
136.5227980292
 30
0.0
  0
SEQEND
  5
132
  8
DEFAULT
  6
CONTINUOUS
 62
     7
  0
POLYLINE
  5
EB
  8
DEFAULT
  6
CONTINUOUS
 62
     7
 66
     1
 10
0.0
 20
0.0
 30
0.0
  0
VERTEX
  5
11C
  8
DEFAULT
  6
CONTINUOUS
 62
     7
 10
50.3506600501
 20
124.5227978131
 30
0.0
  0
VERTEX
  5
11D
  8
DEFAULT
  6
CONTINUOUS
 62
     7
 10
51.5173267528
 20
124.5227978131
 30
0.0
  0
VERTEX
  5
11E
  8
DEFAULT
  6
CONTINUOUS
 62
     7
 10
50.9339934014
 20
128.0227979211
 30
0.0
  0
VERTEX
  5
11F
  8
DEFAULT
  6
CONTINUOUS
 62
     7
 10
50.3506600501
 20
124.5227978131
 30
0.0
  0
SEQEND
  5
133
  8
DEFAULT
  6
CONTINUOUS
 62
     7
  0
LINE
  5
EC
  8
DEFAULT
  6
CONTINUOUS
 62
     7
 10
58.7091538854
 20
133.0227979211
 30
0.0
 11
49.9539933898
 21
133.0227979211
 31
0.0
  0
LINE
  5
ED
  8
DEFAULT
  6
CONTINUOUS
 62
     7
 10
59.1591538854
 20
128.0227979211
 30
0.0
 11
49.9539933898
 21
128.0227979211
 31
0.0
  0
LINE
  5
EE
  8
DEFAULT
  6
CONTINUOUS
 62
     7
 10
50.9339934014
 20
140.0227981372
 30
0.0
 11
50.9339934014
 21
121.0227978168
 31
0.0
  0
TEXT
  5
F0
  8
DEFAULT
  6
CONTINUOUS
 62
     7
 10
49.7089934014
 20
127.7836675422
 30
0.0
 40
3.5
  1
10
 50
90.0
  7
SEACAD_ARIAL
 11
46.2089934014
 21
127.7836675422
 31
0.0
 73
     3
  0
ENDBLK
  5
F2
  8
0
  0
BLOCK
  8
0
  2
GDIMGGROUP1
 70
     0
 10
0.0
 20
0.0
 30
0.0
  3
GDIMGGROUP1
  1

  0
POLYLINE
  5
F5
  8
DEFAULT
  6
CONTINUOUS
 62
     7
 66
     1
 10
0.0
 20
0.0
 30
0.0
  0
VERTEX
  5
120
  8
DEFAULT
  6
CONTINUOUS
 62
     7
 10
50.350659913
 20
156.8272011061
 30
0.0
  0
VERTEX
  5
121
  8
DEFAULT
  6
CONTINUOUS
 62
     7
 10
51.5173266157
 20
156.8272011061
 30
0.0
  0
VERTEX
  5
122
  8
DEFAULT
  6
CONTINUOUS
 62
     7
 10
50.9339932643
 20
153.3272009981
 30
0.0
  0
VERTEX
  5
123
  8
DEFAULT
  6
CONTINUOUS
 62
     7
 10
50.350659913
 20
156.8272011061
 30
0.0
  0
SEQEND
  5
134
  8
DEFAULT
  6
CONTINUOUS
 62
     7
  0
POLYLINE
  5
F6
  8
DEFAULT
  6
CONTINUOUS
 62
     7
 66
     1
 10
0.0
 20
0.0
 30
0.0
  0
VERTEX
  5
124
  8
DEFAULT
  6
CONTINUOUS
 62
     7
 10
50.350659913
 20
183.2272000317
 30
0.0
  0
VERTEX
  5
125
  8
DEFAULT
  6
CONTINUOUS
 62
     7
 10
51.5173266157
 20
183.2272000317
 30
0.0
  0
VERTEX
  5
126
  8
DEFAULT
  6
CONTINUOUS
 62
     7
 10
50.9339932643
 20
186.7272001398
 30
0.0
  0
VERTEX
  5
127
  8
DEFAULT
  6
CONTINUOUS
 62
     7
 10
50.350659913
 20
183.2272000317
 30
0.0
  0
SEQEND
  5
135
  8
DEFAULT
  6
CONTINUOUS
 62
     7
  0
LINE
  5
F7
  8
DEFAULT
  6
CONTINUOUS
 62
     7
 10
64.6591538854
 20
153.3272009981
 30
0.0
 11
49.9539932527
 21
153.3272009981
 31
0.0
  0
LINE
  5
F8
  8
DEFAULT
  6
CONTINUOUS
 62
     7
 10
64.6591538854
 20
186.7272009981
 30
0.0
 11
49.9539932527
 21
186.7272009981
 31
0.0
  0
LINE
  5
F9
  8
DEFAULT
  6
CONTINUOUS
 62
     7
 10
50.9339932643
 20
153.3272009981
 30
0.0
 11
50.9339932643
 21
186.7272001398
 31
0.0
  0
TEXT
  5
FA
  8
DEFAULT
  6
CONTINUOUS
 62
     7
 10
49.7089932643
 20
167.2880701341
 30
0.0
 40
3.5
  1
67
 50
90.0
  7
SEACAD_ARIAL
 11
46.2089932643
 21
167.2880701341
 31
0.0
 73
     3
  0
ENDBLK
  5
FC
  8
0
  0
BLOCK
  8
0
  2
GDIMGGROUP2
 70
     0
 10
0.0
 20
0.0
 30
0.0
  3
GDIMGGROUP2
  1

  0
POLYLINE
  5
FF
  8
DEFAULT
  6
CONTINUOUS
 62
     7
 66
     1
 10
0.0
 20
0.0
 30
0.0
  0
VERTEX
  5
128
  8
DEFAULT
  6
CONTINUOUS
 62
     7
 10
64.6182885805
 20
196.8609764743
 30
0.0
  0
VERTEX
  5
129
  8
DEFAULT
  6
CONTINUOUS
 62
     7
 10
64.6182885805
 20
195.6943097716
 30
0.0
  0
VERTEX
  5
12A
  8
DEFAULT
  6
CONTINUOUS
 62
     7
 10
61.1182884724
 20
196.277643123
 30
0.0
  0
VERTEX
  5
12B
  8
DEFAULT
  6
CONTINUOUS
 62
     7
 10
64.6182885805
 20
196.8609764743
 30
0.0
  0
SEQEND
  5
136
  8
DEFAULT
  6
CONTINUOUS
 62
     7
  0
POLYLINE
  5
100
  8
DEFAULT
  6
CONTINUOUS
 62
     7
 66
     1
 10
0.0
 20
0.0
 30
0.0
  0
VERTEX
  5
12C
  8
DEFAULT
  6
CONTINUOUS
 62
     7
 10
150.6541502142
 20
196.8609764743
 30
0.0
  0
VERTEX
  5
12D
  8
DEFAULT
  6
CONTINUOUS
 62
     7
 10
150.6541502142
 20
195.6943097716
 30
0.0
  0
VERTEX
  5
12E
  8
DEFAULT
  6
CONTINUOUS
 62
     7
 10
154.1541503222
 20
196.277643123
 30
0.0
  0
VERTEX
  5
12F
  8
DEFAULT
  6
CONTINUOUS
 62
     7
 10
150.6541502142
 20
196.8609764743
 30
0.0
  0
SEQEND
  5
137
  8
DEFAULT
  6
CONTINUOUS
 62
     7
  0
LINE
  5
101
  8
DEFAULT
  6
CONTINUOUS
 62
     7
 10
61.1182884724
 20
184.5714997382
 30
0.0
 11
61.1182884724
 21
197.2576431346
 31
0.0
  0
LINE
  5
102
  8
DEFAULT
  6
CONTINUOUS
 62
     7
 10
154.1541539424
 20
188.722201055
 30
0.0
 11
154.1541539424
 21
197.2576431346
 31
0.0
  0
LINE
  5
103
  8
DEFAULT
  6
CONTINUOUS
 62
     7
 10
61.1182884724
 20
196.277643123
 30
0.0
 11
154.1541503222
 21
196.277643123
 31
0.0
  0
TEXT
  5
104
  8
DEFAULT
  6
CONTINUOUS
 62
     7
 10
103.5275237452
 20
197.502643123
 30
0.0
 40
3.5
  1
186
  7
SEACAD_ARIAL
 11
103.5275237452
 21
201.002643123
 31
0.0
 73
     3
  0
ENDBLK
  5
106
  8
0
  0
ENDSEC
  0
SECTION
  2
ENTITIES
  0
INSERT
  5
60
  8
DEFAULT
  2
SE
 10
0.0
 20
0.0
 30
0.0
  0
INSERT
  5
D2
  8
DEFAULT
  2
SE1
 10
0.0
 20
0.0
 30
0.0
  0
INSERT
  5
E9
  8
DEFAULT
  2
GDIMGGROUP
 10
0.0
 20
0.0
 30
0.0
  0
INSERT
  5
F4
  8
DEFAULT
  2
GDIMGGROUP1
 10
0.0
 20
0.0
 30
0.0
  0
INSERT
  5
FE
  8
DEFAULT
  2
GDIMGGROUP2
 10
0.0
 20
0.0
 30
0.0
  0
ENDSEC
  0
EOF
